Oops, an error
Loading. Please wait.

A Little More You Tab

version 1
version 1

Intro

Whole song

6,946 views 3 this week
no commentswrite comment
1 2 3 4 5
accurate
x 3
add to favorites
launch autoscroll
font size
0
reset
how to read this tab
guitar tuner
Autoscroll
slow
fast
+/-
esc
set tempo
stop
Help us to improve Ultimate-Guitar.com Take our survey!
×
Difficulty
Capo
novice
3rd fret
Standard Tuning but Capo 3rd fret.                              

                               F           C
E-----------------------------1-1----------------------|
B-----------------------------1-1---------1-1----------|
G-----------------------------2-2--0h2p0---------------|
D------------0---0h2p0-----0--3-3---------2-2--0h2p0---|
A-------0h2----2-------0h2----------------3-3----------|
E--3-3-------------------------------------------------|
                              F           C      
E-----------------------------1-1----------------------|
B-----------------------------1-1---------1------------|
G-----------------------------2-2--0h2p0---4p2p0-------|
D------------0---0h2p0-----0--3-3---------2------------|
A-------0h2----2-------0h2----------------3------------|
E--3-3-------------------------------------------------|

From here you just strum the G F C progression like the other tabs.
Suggest correction
Give kudos to tab author, rate the tab!
1 2 3 4 5
comments
print report bad tab
guest
You may want to rate the tab now too:
select rating
Wanna post a correction for this tab? Suggest correction