Oops, an error
Loading. Please wait.

A Little More You Tab

version 1
version 1

Whole song

16,971 views 9 this week
no commentswrite comment
1 2 3 4 5
excellent!
x 5
add to favorites
launch autoscroll
font size
0
reset
how to read this tab
guitar tuner
Autoscroll
slow
fast
+/-
esc
set tempo
stop
Help us to improve Ultimate-Guitar.com Take our survey!
×
Author
Difficulty
Capo
novice
3rd fret
Capo 3rd Fret

         G                      F     C
E-----------------------------1---1--0---0-------------|
B-----------------------------1---1--1---1-------------|
G-----------------------------0h2-0--0---0-------------|
D------------0---0h2p0-----0--3---3--0h2-0-------------|
A-------0h2----2-------0h2-----------3---3-------------|
E--3-3-------------------------------------------------|

         G                      F     C
E-----------------------------1---1--0---0-------------|
B-----------------------------1---1--1---1-------------|
G-----------------------------0h2-0--0---0-------------|
D------------0---0h2p0-----0--3---3--0h2-0-------------|
A-------0h2----2-------0h2-----------3---3-------------|
E--3-3-------------------------------------------------|


G                F 	  	         C 	     G
Don't you wanna dive on in, yeah, the water feels right
 	  	 F  	  	  	 C 	 G
Dancin' on the edge of love you're a beautiful sight
 	  	 F 	  	  	     C 	      G
So why're you still standing there in the half moonlight
 	   F     C 	  	       G
Come on, baby, give me a little more you
          F 	 C 	  	       
Come on, baby, give me a little more you

         G                      F     C
E-----------------------------1---1--0---0-------------|
B-----------------------------1---1--1---1-------------|
G-----------------------------0h2-0--0---0-------------|
D------------0---0h2p0-----0--3---3--0h2-0-------------|
A-------0h2----2-------0h2-----------3---3-------------|
E--3-3-------------------------------------------------|

G 	  	       F                C 	 G
You're battin' those baby blues and, honey, I swear
 	  	      F 	  	  	  C 	      G
The way you got me needing you girl, it just ain't fair
 	  	     F 	  	  	  C 	       G
You've given me a little bit, yeah, but don't stop there
 	    F 	 C 	  	       G
Come on, baby, give me a little more you
 	   F     C 	  	       G
Come on, baby, give me a little more you


C 	     G
I'm here fallin' for you
F 	      C
My heart's callin' for you
Am7             G
I know I never can get enough
F 	              C
Don't hold back one bit of your love
Am7 	      G
Strong and steady for you
F         C
I'm all ready
          F      C  	  	       G
Come on, baby, give me a little more you
          F      C                G
Come on, baby, give me a little more 


Solo: G F C (x2)


G                  F                     C           G
You're teasin' me with a touch and the whole world shakes
 	  	     F 	  	        C          G
Keep holdin' that river back and the levee may break
                  F                 C         G
There's only so much that this old boy can take
          F      C                    G
Come on, baby, give me a little more you
          F      C                    G
Come on, baby, give me a little more you


C          G
I'm here fallin' for you
F            C
My heart's callin' for you
Am7             G
I know I never can get enough
F                    C
Don't hold back one bit of your love
Am7          G
Strong and steady for you
F        C
I'm all ready
 	   F      C                    G
Come on, baby, give me a little more you
 	   F      C                    G
Come on, baby, give me a little more you
          F      C 
Come on, baby, give me a little more...

         G                      F     C
E-----------------------------1---1--0---0-------------|
B-----------------------------1---1--1---1-------------|
G-----------------------------0h2-0--0---0-------------|
D------------0---0h2p0-----0--3---3--0h2-0-------------|
A-------0h2----2-------0h2-----------3---3-------------|
E--3-3-------------------------------------------------|

^^^Play 12 FULL times...13th time ends on F.

Suggest correction
What's this?
You can suggest a correction to this tab. Community and Mods will review your correction and vote to approve or reject it.
comments
print report bad tab
guest
You may want to rate the tab now too:
select rating
Please do not post tabs as comments. Select "correction" instead!