Oops, an error
Loading. Please wait.

Boondocks Tab

version 3
version 3
35,501 views 39 this week
no commentswrite comment
1 2 3 4 5
excellent!
x 9
add to favorites
launch autoscroll
font size
0
reset
how to read this tab
guitar tuner
Tab Pro tools
  • play this tab
  • loop segment
  • change instrument
  • show fretboard
  • metronome
×
Best way to learn
"Boondocks"
Autoscroll
slow
fast
+/-
esc
set tempo
stop
Contributor
Difficulty
novice
This first part is played with a dobro, you can play
it with a slide or you can play it regularly if you
don't have a slide.
E---------------------------------------------------|
B------8b---8---------------------------------------|
G--7/9----9---9\7---7/9-7---7-----------------------|
D-----------------9-------9---9-7-7/9-7-7--7-5-7-5--|
A-------------------------------------------------7-|
E---------------------------------------------------|

This is the guitar that plays after the dobro. This is
also played during the first two lines of the chorus.
E------------------------|
B----------3-3-----------|
G--2h4-2-4-----2-2h4-2-4-|
D--2---2-2-------2---2-2-|
A------------------------|
E------------------------|
comments
print report bad tab
I want to post or [tab]
guest
You may want to rate the tab now too:
select rating
Please do not post tabs as comments. Select "correction" instead!