Oops, an error
Loading. Please wait.

Boondocks Tab

version 3
version 3
3,993 views 21 this week
no commentswrite comment
1 2 3 4 5
2 more votes to show rating
add to favorites
launch autoscroll
font size
0
reset
how to read this tab
guitar tuner
Autoscroll
slow
fast
+/-
esc
set tempo
stop
Tuning
E A D G B E
Tabbed by: Luke Bachmann
Little Big Town
Boondocks

e|----------------------------|--------------------------|
B|---------8--------8---------|--------------------------|
G|-7/9--------9--------9\7----|-7/9----7-------7---------|
D|-------------------------9--|-----------9-------9\7-5--|
A|----------------------------|--------------------------|
E|----------------------------|--------------------------|

e|----------------------------|--------------------------|
B|----------------------------|--------------------------|
G|----------------------------|--------------------------|
D|-7/9----\7--7-----7p5-7--5--|--------------------------|
A|----------------------------|-5h7----------------------|
E|----------------------------|--------------------------|


********************

| /  Slide up
| \  Slide down
| p  Pull-off
| h  Hammer-on

********************
Suggest correction
Give kudos to tab author, rate the tab!
1 2 3 4 5
comments
print report bad tab
guest
You may want to rate the tab now too:
select rating
Wanna post a correction for this tab? Suggest correction