Oops, an error
Loading. Please wait.

Pontoon tab

version 2
version 2

Whole song

Interactive

43 views 6 this week
no commentswrite comment
1 2 3 4 5
3 more votes to show rating
add to favorites
×
Save as Personal and add changes to this tab that will be seen only by you. Learn more ›
×
You can save this tab as Personal to edit and correct it or add notes. All changes will be seen only by you. Learn more »
launch autoscroll
font size
0
reset
how to read this tab
guitar tuner
edit
Autoscroll
slow
fast
+/-
esc
set tempo
stop
Pontoon – Little Big Town

[Intro]
A
TWICE
E|--5--8--5--8--5-----------5--8--5--|
B|--------------------5--8-----------|
G|-----------------------------------|
D|-----------------------------------|
A|-----------------------------------|
E|-----------------------------------|

[Verse 1]
A
Back this hitch up into the water
A
Untie all the cable and rope
 D
Step onto the astro turf
                      A
Get yourself a cooze, LET'S GO

E|--5--8--5--8--5-----------5--8--5--|
B|--------------------5--8-----------|
G|-----------------------------------|
D|-----------------------------------|
A|-----------------------------------|
E|-----------------------------------|
A
Who said anything about skiin'?
A
Floating is all I wanna do

 D
You can climb the ladder
                                 A
Just dont rock the boat while I barbeque

E|--5--8--5--8--5-----------5--8--5--|
B|--------------------5--8-----------|
G|-----------------------------------|
D|-----------------------------------|
A|-----------------------------------|
E|-----------------------------------|

[Chorus]
     D
On the pontoon
                             A
Makin waves and catching rays up on the roof
                                            E
Jumpin' out the back dont act like you dont want to
                       A
Party in slow motion, out here in the open
2 bars of A
Mmmmmm... motorboatin' (Hoo hoo hoo)
Twice
E|--5--8--5--8--5-----------5--8--5--|
B|--------------------5--8-----------|
G|-----------------------------------|
D|-----------------------------------|
A|-----------------------------------|
E|-----------------------------------|

[Verse 2]
A
Reach your hand down into the cooler
A
Dont drink it if the mountains aren't blue
D                                                 A
Try to keep it as you recline on your black intertube

E|--5--8--5--8--5-----------5--8--5--|
B|--------------------5--8-----------|
G|-----------------------------------|
D|-----------------------------------|
A|-----------------------------------|
E|-----------------------------------|

     D
On the pontoon
                             A
Makin waves and catching rays up on the roof
                                            E
Jumpin' out the back dont act like you dont want to
                       A
Party in slow motion, out here in the open
2 bars of A
Mmmmmm... motorboatin' (Hoo hoo hoo)
Twice
E|--5--8--5--8--5-----------5--8--5--|
B|--------------------5--8-----------|
G|-----------------------------------|
D|-----------------------------------|
A|-----------------------------------|
E|-----------------------------------|

[Instrumental]
| D | D | A | A | E| A | A |

E|------------------10----------------10--|
B|--------10------------------10--12------|
G|--9b11------9b11------9/11--------------|
D|----------------------------------------|
A|----------------------------------------|
E|----------------------------------------|

E|---------14--12-----------------|
B|--12b14----------12b14--12--10--|
G|--------------------------------|
D|--------------------------------|
A|--------------------------------|
E|--------------------------------|

E|----------------------------------------|
B|--12b14--10--12b14--12--------12--------|
G|--------------------------------r11--9--|
D|----------------------------------------|
A|----------------------------------------|
E|----------------------------------------|

E|----------------------------------------------------|
B|--------10------------------------------------------|
G|----------------11--9-------------------------------|
D|--9/11------11---------9b11--9--7-------------------|
A|--------------------------------------9--7----------|
E|--------------------------------------------7b8--5--|

[Bridge]
A N.C.
5 mile an hour with aluminum side
Wood panelin' with a water slide
Can't beat the heat, so lets take a ride!

[Chorus]
A  B C#    D
On the pontoon
                                 A
Makin waves and catching rays up on the roof
                                            E
Jumpin' out the back dont act like you dont want to
                       A hold N.C.
Party in slow motion, out here in the open

Mmmmmm... motorboatin' (Hoo hoo hoo)

[Outro]
A (Stay in "A" to the end) riff in A
On the pontoon
(hoo hoo hoo)
On the pontoon
(hoo Hoo hoo)
Back this hitch out into the water
On the pontoon

            
            
Suggest correction
Creating personal tab
Creating personal tab
You can edit any tab online and save it as your Personal.

You can edit, replace or remove any tab part or add personal notes – all changes will be seen only by you.

Personal tabs can be accessed anytime from any device, even offline.
Learn more »
Give kudos to tab author, rate the tab!
1 2 3 4 5
comments
print report bad tab
guest
You may want to rate the tab now too:
select rating
Wanna post a correction for this tab? Suggest correction