Oops, an error
Loading. Please wait.

To Know Love Tab

3,950 views 6 this week
no commentswrite comment
1 2 3 4 5
please rate
add to favorites
launch autoscroll
font size
0
reset
how to read this tab
guitar tuner
Autoscroll
slow
fast
+/-
esc
set tempo
stop
Help us to improve Ultimate-Guitar.com Take our survey!
×
Contributor
Difficulty
Capo
intermediate
4th fret
To Know Love - by Little Big Town

tabbed by Justin Bowe (justinboweforpresident@gmail.com)

This is a great song, and it is fingerpicked in the style of "Dust in the Wind" by Kansas.

Tuning - Standard
Capo IV

This lick repeats throughout the intro and verses.
For the last fill before the chorus, make a D chord and pluck the
second frets on the G and high E string (let it ring!).


 --------------------------------|-----------------------3---------|
 0h1-------1-----3---------3---0-|0h1---0---1---0-3----------------|
 ------0-------0-------0-----0---|---------------------------0-----|
 ----2-------2-------0-----------|----2-------2-------0----------0-|
 0-------0-------0h2-----2-------|3-------3---------------2----2---|
 --------------------------------|----------------3----------------|

 Am7               G/B            C               G


Here is the chorus. Repeat it twice.

 -----------------------3---------|-----------------------3---------|
 0h1---0---1---0-3----------------|0h1---0---1---0-3----------------|
 ---------------------------0-----|---------------------------0-----|
 ----2-------2-------0----------0-|----2-------2-------0----------0-|
 3-------3---------------2----2---|3-------3---------------2----2---|
 ----------------3----------------|----------------3----------------|

 C               G                 C               G


 -----------------------3---------|--------------------------------|
 0h1---0---1---0-3----------------|3---------3-----0h1---0---1---0-|
 ---------------------------0-----|------2-------2-----------------|
 ----2-------2-------0----------0-|----0---0---0-------2-------2---|
 3-------3---------------2----2---|----------------3-------3-------|
 ----------------3----------------|2-------------------------------|

 C               G                 D/F#            C


Here is the bridge.

 3---------------3---------------|3---------------3---------------|
 ----------3---------------3-----|----------3---------------3-----|
 ------0-------0-------0-------0-|------0-------0-------0-------0-|
 ----2-------2-------2-------2---|----2-------2-------2-------2---|
 3-------3-------3-------3-------|3-------3-------3-------3-------|
 --------------------------------|--------------------------------|

 C9

If you know all this, then you know the whole song.

This is not intended to be a precise transcription, but it is close.
If you believe there are any errors, please let me know.



Chords:

  Am7

---0--- 
---2--- index
---0--- 
---3--- ring
---0---
---0---

  G/B

---0--- 
---3--- ring
---0---
---0---
---1--- index
---0---

   C

---0--- 
---1--- index
---0--- 
---2--- middle
---3--- ring
---0--- 

   G    

---3--- little
---3--- ring
---0--- 
---0--- 
---2--- index
---3--- middle

  D/F#

---2--- middle
---3--- ring
---2--- index
---0--- 
---0--- 
---2--- thumb

   C9

---3--- little
---3--- ring
---0--- 
---2--- index
---3--- middle
---x--- 
comments
We did not receive enough feedback on this tab! Please rate:
print report bad tab
1 2 3 4 5
I want to post or [tab]
guest
You may want to rate the tab now too:
select rating
Please do not post tabs as comments. Select "correction" instead!