Oops, an error
Loading. Please wait.

Whats The Problem Tab

136 views 1 this week
no commentswrite comment
1 2 3 4 5
please rate
add to favorites
launch autoscroll
font size
0
reset
how to read this tab
guitar tuner
Autoscroll
slow
fast
+/-
esc
set tempo
stop
Help us to improve Ultimate-Guitar.com Take our survey!
×
Contributor
Difficulty
novice
STANDARD TUNING

INTRO/VERSE/POST CHORUS

  D           A   E
e|00000000000000000-00-000-000-000|
B|33333333333322220-00-000-000-000|
G|22222222222222221-11-111-111-111|
D|00000000000000002-22-222-222-222|
A|00000000000000002-22-222-222-222|
E|00000000000000000-00-000-000-000|


CHORUS

  D               G               Em              A
e|2-22-222-222-2223-33-333-333-3330-00-000-000-0000-00-000-000-000|
B|3-33-333-333-3333-33-333-333-3330-00-000-000-0002-22-222-222-222|
G|2-22-222-222-2220-00-000-000-0000-00-000-000-0002-22-222-222-222|
D|0-00-000-000-0000-00-000-000-0002-22-222-222-2222-22-222-222-222|
A|0-00-000-000-0002-22-222-222-2222-22-222-222-2220-00-000-000-000|
E|0-00-000-000-0003-33-333-333-3330-00-000-000-0000-00-000-000-000|


BRIDGE 

  G       D       A       Em       Bm
e|3-33-3332-22-2220-00-0000-00-000|2~
B|3-33-3333-33-3332-22-2220-00-000|3~
G|0-00-0002-22-2222-22-2220-00-000|4~
D|0-00-0000-00-0002-22-2222-22-222|4~
A|2-22-2220-00-0000-00-0002-22-222|2~
E|3-33-3330-00-0000-00-0000-00-000|X-


BRIDGE LEAD

BAR1
e|----------5-5-5-5-------------------------5-5-5-5---------------|
B|(7)-----------------7---7-7-5-----------------------7---7-7-5-78|(7)
G|------------------------------7---------------------------------|
D|--------------------------------7-------------------------------|
A|----------------------------------------------------------------|
E|----------------------------------------------------------------|

BAR2
e|----------5-5-5-5-------------------------5-5-5-5---------------|
B|(7)-----------------7---7-7-5-----------------------7---7-7-5---|
G|------------------------------7-------------------------------7-(7)~
D|--------------------------------7-------------------------------|
A|----------------------------------------------------------------|
E|----------------------------------------------------------------|



INTRO (REPEAT BAR 2X)
VERSE (REPEAT BAR 4X)
CHORUS (REPEAT BAR 2X)
POST-CHORUS (REPEAT BAR 2X)
VERSE (REPEAT BAR 4X)
CHORUS (REPEAT BAR 2X)
BRIDGE (REPEAT BAR 2X) + BRIDGE LEAD (REPEAT BAR1 2X)
BRIDGE (REPEAT BAR PALM MUTE 2X) + BRIDGE LEAD (BAR1 +BAR 2)
BRIDGE (Bm~) + BRIDGE LEAD (7~)


http://www.littlebrazil.net/
comments
We did not receive enough feedback on this tab! Please rate:
print report bad tab
1 2 3 4 5
I want to post or [tab]
guest
You may want to rate the tab now too:
select rating
Please do not post tabs as comments. Select "correction" instead!