Oops, an error
Loading. Please wait.

Chloe intro tab

version 1
version 1

Intro

1,147 views 12 this week
no commentswrite comment
1 2 3 4 5
2 more votes to show rating
add to favorites
×
Save as Personal and add changes to this tab that will be seen only by you. Learn more ›
×
You can save this tab as Personal to edit and correct it or add notes. All changes will be seen only by you. Learn more »
launch autoscroll
font size
0
reset
how to read this tab
guitar tuner
edit
Autoscroll
slow
fast
+/-
esc
set tempo
stop
-------------------------------------------------------------------------------
                             CHLOE - Little Brother
-------------------------------------------------------------------------------
Tabbed by: Lachy_Shredz
Email for any mistakes ljbordin@gmail.com

Tuning: Standard EADGBe

Capo 2nd Fret

e|----|---0--------------------------------------------------------|
B|----|-3p0------------3/5------------10----7-7h8p7\5---5----------| PLAYED
G|----|---------------------------0----9----------------4----------| TWICE
D|----|------------------------------------------------------------| (the 3 on the A string is only 
A|-3--|------------3----------------------------------------0---02-| played the first time through)
E|----|------------------------------------------------------2-----|

e|--------0---------------------------------------------------|
B|------3p0------------3/5--------0----10---7-7h8p7\5---5-----|
G|--------------------------------------9---------------4-----| Goes straight into the G chord 
D|------------------------------------------------------------| after playing the open A string
A|-----------------3----------------------------------------0-|
E|------------------------------------------------------------|

As indicated, this is just the intro. The chords can be found in the other tab by 'xjakey_cakesx' which are 
accurate. So put these together and you have the whole song as recorded on the album

Thanks :)


************************************

| /   slide up
| \   slide down
| h   hammer-on
| p   pull-off

************************************
Suggest correction
Creating personal tab
Creating personal tab
You can edit any tab online and save it as your Personal.

You can edit, replace or remove any tab part or add personal notes – all changes will be seen only by you.

Personal tabs can be accessed anytime from any device, even offline.
Learn more »
Give kudos to tab author, rate the tab!
1 2 3 4 5
comments
print report bad tab
guest
You may want to rate the tab now too:
select rating
Wanna post a correction for this tab? Suggest correction