Oops, an error
Loading. Please wait.

Cleveland Oh tab

2,119 views 105 this week
no commentswrite comment
1 2 3 4 5
x 4
add to favorites
×
Save as Personal and add changes to this tab that will be seen only by you. Learn more ›
×
You can save this tab as Personal to edit and correct it or add notes. All changes will be seen only by you. Learn more »
launch autoscroll
font size
0
reset
how to read this tab
guitar tuner
edit
Autoscroll
slow
fast
+/-
esc
set tempo
stop
Author
Difficulty
About this tab version
First tab of this song on the site. Tabbed exactly how John plays it in the recording and in live shows. Was this info helpful? Yes No
[Intro]
e|---0-0-0-0-0-0-0-0--0-0-0-0-0-0-0-0------|            |----x-x-x-x-x-x-x-x--------------------|
B|---3-3-3-3-3-3-3-3--3-3-3-3-3-3-3-3------|            |----0-0-0-0-0-0-0-0-0-0-0-0-0-0-0-0----|
G|---0-0-0-0h2-2-2p0--0-0-0-0h2-2-2p0------|            |----2-2-2-2-2-2-2-2-2-2-2-2/4-4-4-4----|
D|---2-2-2p0-0-0-0-0--2-2-2p0-0-0-0-0------|            |----0-0-0-0-0-0-0-0-0-0-0-0-0-0-0-0----|
A|---3-3-3-3-3-3-3-3--3-3-3-3-3-3-3-3------|            |----0-0-0-0-0-0-0-0--------------------|
E|---x-x-x-x-x-x-x-x--x-x-x-x-x-x-x-x------|            |----2-2-2-2-2-2-2-2--------------------|
    
e|---0------------------------------------------0----------------------------|
B|---7------------------------------------------5----------------------------|
G|---0------------------------------------------0----------------------------|
D|---5------------------------------------------4----------------------------|
A|---7------------------------------------------5----------------------------|
E|---x------------------------------------------x----------------------------|

[Verse]
Essentially the same chords just without the hammer-on/pull-offs and slides.
e|--0-----x-----0-----0-----|
B|--3-----0-----7-----5-----|
G|--0-----2-----0-----0-----|
D|--2-----0-----5-----4-----|
A|--3-----0-----7-----5-----|
E|--x-----2-----x-----x-----|

[Chorus]
He holds the chords for the first few lines. Listen to the song for when he strums :)
   'I'd rather die on the plane flight home.'
e|--x-----------x--------------------------------------------------------------------|
B|--3-----------3--------------------------------------------------------------------|
G|--0-----------0--------------------------------------------------------------------|
D|--0-----------2---hold-------------------------------------------------------------|
A|--2-----------2--------------------------------------------------------------------|
E|--3-----------0--------------------------------------------------------------------|

   'Disappoint you in the years...'
e|--x-----------x-----------0--------------------------------------------------------|
B|--3-----------3-----------3--------------------------------------------------------|
G|--0-----------0-----------0----It follows these chords for the rest of the chorus--|
D|--0-----------2-----------2--------------------------------------------------------|
A|--2-----------2-----------3--------------------------------------------------------|
E|--3-----------0-----------x--------------------------------------------------------|

[Intro]
[Verse]
[Chorus]

[Bridge]
e|-----------------------------------------------------------------------------------|
B|-------------------------0---------------------------------------------------------|
G|-----------------------------0-----------------------------------------------------|
D|-------------2---2---------------0-------------------------------------------------|
A|----2---2--3---3-----2-------------2-----------------------------------------------|
E|--0---0------------3---3---3---3---------------------------------------------------|

Whilst John picks this he adds in some palm-muted strums of the picked melody.
The outro then picks up with these strummed chords:

e|--x----------0-----------x-----------|
B|--3----------3-----------3-----------|
G|--0----------0-----------0-----------|
D|--2----------2-----------0-----------|
A|--2----------3-----------2-----------|
E|--0----------x-----------3-----------|

************************************

| /   Slide up
| p   Pull off
| h   Hammer on
| x   Dead note

************************************

            
            
Suggest correction
Creating personal tab
Creating personal tab
You can edit any tab online and save it as your Personal.

You can edit, replace or remove any tab part or add personal notes – all changes will be seen only by you.

Personal tabs can be accessed anytime from any device, even offline.
Learn more »
comments
print report bad tab
guest
You may want to rate the tab now too:
select rating
Wanna post a correction for this tab? Suggest correction