Oops, an error
Loading. Please wait.

Bridge Burn Chords

12,944 views 42 this week
1 commentread comment
1 2 3 4 5
x 6
add to favorites
launch autoscroll
font size
0
reset
transpose
0
reset
display chords
guitar tuner
Autoscroll
slow
fast
+/-
esc
set tempo
stop
Help us to improve Ultimate-Guitar.com Take our survey!
×
Author
Difficulty
-- Bridge Burn by Little Comets--

Tabbed by: Jayn Acoba
Tunning: Standard
March 7, 2013


Chords:
    D        G        A        Bm
e|--5--|  |--3--|  |--5--|  |--2--|
B|--7--|  |--3--|  |--5--|  |--3--|
G|--7--|  |--4--|  |--6--|  |--4--|
D|--7--|  |--5--|  |--7--|  |--4--|
A|--5--|  |--5--|  |--7--|  |--2--|
E|-----|  |--3--|  |--5--|  |-----|


Verse 1:
D         G         A      Bm
 The shore the shore it is a metaphor
D       G                  A            Bm
 for every moment that has ever passed between them
D       G        A       Bm
 the way the rays repeat upon her face
D            G          A             Bm
 It's their monotony she says We need to bridge burn


Chorus:
e|--14/15-14-12----10--------------------|
B|-------------12----10------------------|
G|-----------------------9-9-9/11--11\7--|
D G A        Bm
     We need to bridge burn
D G A        Bm
     We need to bridge burn   x2



Verse 2: same chords
D G A Bm
Shukran! Shukran! he whispers to her hands
and sees his future in the beach outstretched before them
the way the waves wash empty words away
is opportunity he nods We need to bridge burn


A             G                Bm       D          
  But I could tell you that it means so much
     D                  D                   A
  to look in your eyes, to look in your eyes
              G                  Bm    D
  and I could tell you that it's not a crutch
     D                  D                   A
  to look in your eyes, to look in your eyes
   A       G           Bm       D
We need to bridge burn bridge burn


Solo:
e|--19-17-15-12------------------12-------------12--------------------------|
B|--------------15-----11/12--15------11/12--15----15-----------------------|
G|--------------------------------------------------------------------------|
D|--------------------------------------------------------------------------|
A|--------------------------------------------------------------------------|
E|--------------------------------------------------------------------------|


Verse 3: D G A Bm
So now her heart a mirror from the start 
evacuates the empty space that grew between them
he holds her near the sun a souvenir
a final time to reminisce before they bridge burn


Chorus:
D G A        Bm
     We need to bridge burn
D G A        Bm
     They need to bridge burn  
D G A        Bm
     We need to bridge burn
D G A        Bm             A
     They need to bridge burn  
   A       G            Bm       D
We need to bridge burn, bridge burn



Thank you! This is done by ear so please comment if corrections are needed
Suggest correction
comments
print report bad tab
1 comment total.
0 reply
Matty5899 10 Nov 20, 2016 07:48 PM

Think this is how the chorus and solo go:

Chorus:
e|--14/15-11-13----11------------------------------------|
B|-------------13----11---11-11--13--11------------------|
G|-----------------------------12-------12-10------------| x2
D|--------------------------------------------13-10------|

then at 1:17
e|--14/15-11-13----11------------------------------------|
B|-------------13----11---11-11--13--11------------------|
G|-----------------------------12-------12-10------------|
D|--------------------------------------------13-13/15---|

1:32, building up to solo
e|----18--|
B|-16-----|
G|--------| x1
D|--------|

Solo:
e|-19-17-------------------------------------------------|
B|-------19---------------17------------17---------------|
G|----------19------16-19---------16-19----19------------| x6
D|---------------19------------19------------------------|

guest
You may want to rate the tab now too:
select rating
Wanna post a correction for this tab? Suggest correction