Oops, an error
Loading. Please wait.

Dancing Song Tab

version 1
version 1

Live

Whole song

7,363 views 1 this week
2 commentsread comments
1 2 3 4 5
x 6
add to favorites
launch autoscroll
font size
0
reset
how to read this tab
guitar tuner
Autoscroll
slow
fast
+/-
esc
set tempo
stop
Help us to improve Ultimate-Guitar.com Take our survey!
×
Author
http://www.myspace.com/littlecometsmusic - Song can be found here

official website - littlecomets.com

The Rhythm guitar just constantly changes between A and F# in the Intro/This ones for 
part.

Lead Riff (Intro/This one's for dancing part)
E -------------------------------------------|
A -------------------------------------------|
D -------------------------------------------|
G -9-9-9-9-9-9----------7-7-7-7-7-7----------|
B --------------11-9------------------9--7---|
E -------------------------------------------|

E -------------------------------------------|
A -------------------------------------------|
D -------------------------------------------|
G -9-9-9-9-9-9-----------11-11-13-11-9-------| (Not sure about the last part
B --------------11-9-------------------------|          of this bit)
E -------------------------------------------|


VERSE/Quieter Part

Chords: ALL BAR CHORDS

E (12th fret) , D, A

F#m, G#5 (Powerchord), A

x2


CHORUS

Same chords for rhythm as intro

Lead:

E ----------------|
A ----------------|
D ----------------|
G 9-6------9-6----|
B ----------------|
E ----------------|

E ----------------|
A ----------------|
D ----------------|
G ----------------|
B ----------------|
E ----------------|


WHEN IT REVERTS BACK TO THE WOO-WOO PARTS, THE LEAD GUITARIST PLAYS THE INTRO RIFF AGAIN
Suggest correction
comments
print report bad tab
2 comments total.
+1 reply
Fredmac12 393 Apr 24, 2012 12:33 PM

You've written the tab upside down, like what? really man? How did you even do that, otherwise it's not bad

0 reply
hazuing 87 May 06, 2013 07:59 AM

E -------------------------------------------|
B -------------------------------------------|
G -9-9-9-9-9-9-------------------------------|
D --------------11-9---9-9-9-9-9-9-----------|
A ----------------------------------11-9-----|
E -------------------------------------------|

E -------------------------------------------|
B -------------------------------------------|
G -9-9-9-9-9-9-----------11-11-13-11-9-------|
D --------------11-9-11----------------------|
A -------------------------------------------|
E -------------------------------------------|

guest
You may want to rate the tab now too:
select rating
Wanna post a correction for this tab? Suggest correction