Oops, an error
Loading. Please wait.

Figures Tab

946 views 1 this week
1 commentread comment
1 2 3 4 5
please rate
add to favorites
launch autoscroll
font size
0
reset
how to read this tab
guitar tuner
Autoscroll
slow
fast
+/-
esc
set tempo
stop
Help us to improve Ultimate-Guitar.com Take our survey!
×
Author
Difficulty
novice
-------------------------------------------------------------------------------
                             Figures - Little Comets
-------------------------------------------------------------------------------
Tabbed by: Freddie Macauley
Email: fmacauley2@gmail.com

Tuning: Standard

Lead guitar -

Obviously the timings aren't there, but it's easy enough to work out for yourself, for 
example the chorus is clearly played faster than the verses.

Verse/Intro:

e|----5/3--5--3--------------5/3--5--3------------------|
B|---------------3--5--2h3-------------x--5/3-----------|
G|------------------------------------------------------|
D|------------------------------------------------------|
A|------------------------------------------------------|
E|------------------------------------------------------|


e|--5/3--5--3--------------5/3--5--3--------------------|
B|-------------3--5--2h3-------------3--5-2h3-----------|
G|------------------------------------------------------|
D|------------------------------------------------------|
A|------------------------------------------------------|
E|------------------------------------------------------|

Chorus:

e|---------------3--5--------------3-3-3-3-5-5-5-5-------------------|
B|-x-3--3--5--5--------3-3-5-5-5-5-----------------------------------|
G|-------------------------------------------------------------------|
D|-------------------------------------------------------------------|
A|-------------------------------------------------------------------|
E|-------------------------------------------------------------------|

e|-------------3-3-3-3-5-5-5-5-------------3-3-3-3-5-5---------------|
B|-3-3-5-5-5-5-----------------3-3-5-5-5-5--------------3-3-5/3\5----|
G|-------------------------------------------------------------------|
D|-------------------------------------------------------------------|
A|-------------------------------------------------------------------|
E|-------------------------------------------------------------------|

e|-------------3-3-3-3-5-5-5-5-------------3-3-3-3-5-5-5-5-----------|
B|-3-3-5-5-5-5-----------------3-3-5-5-5-5---------------------------|
G|-------------------------------------------------------------------|
D|-------------------------------------------------------------------|
A|-------------------------------------------------------------------|
E|-------------------------------------------------------------------|

e|-------------3-3-3-3-5-5-5-5-------------3-3-3-3-5-5---------------|
B|-3-3-5-5-5-5-----------------3-3-5-5-5-5--------------3-3-5/3------|
G|-------------------------------------------------------------------|
D|-------------------------------------------------------------------|
A|-------------------------------------------------------------------|
E|-------------------------------------------------------------------|

Verse:

e|----5/3--5--3----------------5/3--5--3----------------------|
B|---------------3--5--3--3--3-------------3--5--3--3--3-3-3--|
G|------------------------------------------------------------|
D|------------------------------------------------------------|
A|------------------------------------------------------------|
E|------------------------------------------------------------|


e|--5/3--5--3--------------5/3--5--3--------------------|
B|-------------3--5----3-------------3--5---3-----------|
G|------------------------------------------------------|
D|------------------------------------------------------|
A|------------------------------------------------------|
E|------------------------------------------------------|

Chorus:

e|---------------3--5--------------3-3-3-3-5-5-5-5-------------------|
B|-x-3--3--5--5--------3-3-5-5-5-5-----------------------------------|
G|-------------------------------------------------------------------|
D|-------------------------------------------------------------------|
A|-------------------------------------------------------------------|
E|-------------------------------------------------------------------|

e|-------------3-3-3-3-5-5-5-5-------------3-3-3-3-5-5---------------|
B|-3-3-5-5-5-5-----------------3-3-5-5-5-5--------------3-3-5/3\5----|
G|-------------------------------------------------------------------|
D|-------------------------------------------------------------------|
A|-------------------------------------------------------------------|
E|-------------------------------------------------------------------|

e|-------------3-3-3-3-5-5-5-5-------------3-3-3-3-5-5-5-5-----------|
B|-3-3-5-5-5-5-----------------3-3-5-5-5-5---------------------------|
G|-------------------------------------------------------------------|
D|-------------------------------------------------------------------|
A|-------------------------------------------------------------------|
E|-------------------------------------------------------------------|

e|-------------3-3-3-3-5-5-5-5-------------3-3-3-3-5-5---------------|
B|-3-3-5-5-5-5-----------------3-3-5-5-5-5--------------3-3-5/3------|
G|-------------------------------------------------------------------|
D|-------------------------------------------------------------------|
A|-------------------------------------------------------------------|
E|-------------------------------------------------------------------|

e|-------------3-3-3-3-5-5-5-5-------------3-3-3-3-5-5-5-5-----------|
B|-3-3-5-5-5-5-----------------3-3-5-5-5-5---------------------------|
G|-------------------------------------------------------------------|
D|-------------------------------------------------------------------|
A|-------------------------------------------------------------------|
E|-------------------------------------------------------------------|

e|-------------3-3-3-3-5-5-5-5-------------3-3-3-3-5-5---------------|
B|-3-3-5-5-5-5-----------------3-3-5-5-5-5--------------3-3-5/3------|
G|-------------------------------------------------------------------|
D|-------------------------------------------------------------------|
A|-------------------------------------------------------------------|
E|-------------------------------------------------------------------|

Bridge:

e|-5-----5-----5-----5--5--5---5-5--5-----5-----5-----5--5--5-5-5-|
B|---8-----8-----8--------------------8-----8-----8---------------|
G|-----9-----9-----9--------------------9-----9-----9-------------|
D|----------------------------------------------------------------|
A|----------------------------------------------------------------|
E|----------------------------------------------------------------|

e|-5-----5-----5-----5--5--5--5-5---5-5-5-5-5-5-5-5---------------|
B|---8-----8-----8------------------------------------------------|
G|-----9-----9-----9----------------------------------------------|
D|----------------------------------------------------------------|
A|----------------------------------------------------------------|
E|----------------------------------------------------------------|

Here the lead guitar goes really quiet, and can effectively not be played but if you 
desire to it's just using 3 and 5 on the e and B strings, just work something out that you 
think sounds good.

Chorus:

e|-------------3-3-3-3-5-5-5-5-------------3-3-3-3-5-5-5-5-----------|
B|-3-3-5-5-5-5-----------------3-3-5-5-5-5---------------------------|
G|-------------------------------------------------------------------|
D|-------------------------------------------------------------------|
A|-------------------------------------------------------------------|
E|-------------------------------------------------------------------|

e|-------------3-3-3-3-5-5-5-5-------------3-3-3-3-5-5---------------|
B|-3-3-5-5-5-5-----------------3-3-5-5-5-5--------------3-3-5/3------|
G|-------------------------------------------------------------------|
D|-------------------------------------------------------------------|
A|-------------------------------------------------------------------|
E|-------------------------------------------------------------------|

e|-------------3-3-3-3-5-5-5-5-------------3-3-3-3-5-5-5-5-----------|
B|-3-3-5-5-5-5-----------------3-3-5-5-5-5---------------------------|
G|-------------------------------------------------------------------|
D|-------------------------------------------------------------------|
A|-------------------------------------------------------------------|
E|-------------------------------------------------------------------|

e|-------------3-3-3-3-5-5-5-5-------------3-3-3-3-5-5---------------|
B|-3-3-5-5-5-5-----------------3-3-5-5-5-5--------------3-3-5/3------|
G|-------------------------------------------------------------------|
D|-------------------------------------------------------------------|
A|-------------------------------------------------------------------|
E|-------------------------------------------------------------------|

Outro/Verse:

e|----5/3--5--3----------------5/3--5--3----------------------|
B|---------------3--5--3--3--3-------------3--5--3--3--3-3-3--|
G|------------------------------------------------------------|
D|------------------------------------------------------------|
A|------------------------------------------------------------|
E|------------------------------------------------------------|


e|--5/3--5--3--------------5/3--5--3--------------------|
B|-------------3--5--2h3-------------3--5---3-----------|
G|------------------------------------------------------|
D|------------------------------------------------------|
A|------------------------------------------------------|
E|------------------------------------------------------|


Rhythm Guitar (Chords) and lyrics:

Intro: Dm - Am G - G - G

                   Dm              Am       G
I've been watching figures on your bedroom floor
            Dm               Am           G
My grasp of figures leaves you wanting more

 G
Well, maybe I'm above this
 F     G
Oh-oh
Em
Well, maybe I'm above this
F    G
Oh-oh
Em
Well maybe I'm above this

Dm - Am G - G -
                   Dm             Am          G
I've been watching figures for a long time now
                  Dm              Am          G
And somehow your figure leaves me feeling down


G
Well, maybe I'm above this
F    G
Oh-oh
           Em                     F
'Cause I'm never gonna miss you now
    G
Oh-oh
Em
Because I'm sure that I'm on top of this
F   G
Oh-oh
Em
They'd need a miracle for ya

F C - G
               F  C
So, so, so sorry
G                   F  C  G
For what I've done
    (Am, for flavour) F
So, so, so sorry
F               C                   G            Am
So what lonely heart is supposed to stand by and listen
          F           C             G              Am
There's a hole in my soul, but I don't know what's missing
  F        C          G       Am          F
So why on earth, with nowhere else to turn
         C       G        F
There is so much more to live and learn

F               C                   G            Am
So what lonely heart is supposed to stand by and listen
          F           C             G              Am
There's a hole in my soul, but I don't know what's missing
  F        C          G       Am          F
So why on earth, with nowhere else to turn
         C       G        F
There is so much more to live and learn

F - G

So I'm sure that I'm above this
F    G
Oh-Oh
   Em
Because I'm sure I'm above this

Dm - Am G - G -

                    Dm            Am        G
I've been watching figures from a different floor
                    Dm            Am        G
And your grasp of figures left me wanting more
 (End)
Suggest correction
What's this?
You can suggest a correction to this tab. Community and Mods will review your correction and vote to approve or reject it.
comments
We did not receive enough feedback on this tab! Please rate:
print report bad tab
1 2 3 4 5
1 comment total.
0 reply
desbutler 13 wrote on September 19 2014, 08:40 am

first hammer on sounds like a 1h3 rather than a 2h3 and in the chorus the 3/5\3 sounds more like the 3 fret is being bent to the 5. Really small corrections otherwise a 5 star tab.

And thanks for the tab!

guest
You may want to rate the tab now too:
select rating
Please do not post tabs as comments. Select "correction" instead!