Oops, an error
Loading. Please wait.

One Night In October Bass Tab

660 views 3 this week
no commentswrite comment
1 2 3 4 5
please rate
add to favorites
launch autoscroll
font size
0
reset
guitar tuner
Tab Pro tools
  • play this tab
  • loop segment
  • change instrument
  • show fretboard
  • metronome
×
Best way to learn
"One Night In October"
Autoscroll
slow
fast
+/-
esc
set tempo
stop
One night in October Bass
g------------------------------------------------|
d------------------------------------------------|
a------------------------------------------------|            x12
e---0------10-10-10-10-10-10-12------------------|


g------------------------------------------------------------------|
D-------------------------------------------------             x 2-|
a------------------------------------------------------------------|
e--0---------0-----------5-----------5-----------------------------|

g---------------------------------------------------------------------------|
d---------------------------------------------------------------------------|
a-----------------------------------4-----5---5----5---5----7---------------|
e---5----5-----5----5-----7---------------------------------------7---------| x2

g-------------------------------------------------------------|
d-------------------------------------------------------------|
a-------------------------------------------------------------|             x8
e---0------10-10-10-10-10-10-12-------------------------------|

g------------------------------------------------------------------|
D-------------------------------------------------             x 2-|
a------------------------------------------------------------------|
e--0---------0-----------5-----------5-----------------------------|


g---------------------------------------------------------------------------|
d---------------------------------------------------------------------------|
a-----------------------------------4-----5---5----5---5----7---------------|
e---5----5-----5----5-----7---------------------------------------7---------| x2

g----------------------------------------------------------------------------|
d----------------------------------------------------------------------------|
a----------------------------------------------------------------------------|
e----9----9-----12------7----9-----9-----12-----9-----7-------7-----9-----7--|

g-------------------------------------|
d-------------------------------------|
a-------------------------------------|                                  x5
e—7---7----7-----7-----7-----7--------|



g---------------------------------------------------------------------------|
d---------------------------------------------------------------------------|
a-----------------------------------4-----5---5----5---5----7---------------|  x4
e---5----5-----5----5-----7---------------------------------------7---------|



g----------------------------------------------------------------|
d----------------------------------------------------------------|
a-----------------------------------------------             x12-|
e---0------10-10-10-10-10-10-12----------------------------------|

"just like carlisle she lies on the border"
g------------------------------------------------------------------|
D-------------------------------------------------             x 2-|
a------------------------------------------------------------------|
e--0---------0-----------5-----------5-----------------------------|

"One night in october"
g----------------------------------------------------------------------|
d----------------------------------------------------------------------|
a-----------------------------------4-----5---5----5---5----7----------| x2
e---5----5-----5----5-----7---------------------------------------7----|

after chorus
g-------------------------------------------------------------|
d-------------------------------------------------------------|
a-------------------------------------------------------------|             x8
e---0------10-10-10-10-10-10-12-------------------------------|

"she goes to boots"
g------------------------------------------------------------------|
D-------------------------------------------------             x 2-|
a------------------------------------------------------------------|
e--0---------0-----------5-----------5-----------------------------|

"one night in october"
g---------------------------------------------------------------------------|
d---------------------------------------------------------------------------|
a-----------------------------------4-----5---5----5---5----7---------------|   x2
e---5----5-----5----5-----7---------------------------------------7---------|

"with doors ajar"
g----------------------------------------------------------------------------|
d----------------------------------------------------------------------------|
a----------------------------------------------------------------------------|
e----9----9-----12------7----9-----9-----12-----9-----7-------7-----9-----7--|

g-------------------------------|
d-------------------------------|
a-------------------------------|                                  x5
e—7---7----7-----7-----7-----7--|

"One night in October"
g---------------------------------------------------------------------------|
d---------------------------------------------------------------------------|
a-----------------------------------4-----5---5----5---5----7---------------|   x5
e---5----5-----5----5-----7---------------------------------------7---------|
comments
We did not receive enough feedback on this tab! Please rate:
print report bad tab
1 2 3 4 5
I want to post or [tab]
guest
You may want to rate the tab now too:
select rating
Please do not post tabs as comments. Select "correction" instead!