Oops, an error
Loading. Please wait.

A New Bass Tab

version 2
version 2

Whole song

1,143 views 1 this week
1 commentread comment
1 2 3 4 5
please rate
add to favorites
launch autoscroll
font size
0
reset
guitar tuner
Autoscroll
slow
fast
+/-
esc
set tempo
stop
Help us to improve Ultimate-Guitar.com Take our survey!
×
Difficulty
novice
-----------------------------------------------------------------------------
			     A New - Little Dragon
-----------------------------------------------------------------------------

Tabbed By : Dave A.
e-mail: onenotetabmonkey@gmail.com

Tuning: standard
Tempo: ~90 BPM

Intro (bass drum starts kicking at the start of this measure)

 |1 + 2 + 3 + 4 + |1 + 2 + 3 + 4 + |
G|----------------|----------------|
D|----------------|----------------|
A|----------------|0-------2-----4-|
E|--------------02|----------------|

Main Riff

 |1 + 2 + 3 + 4 + |1 + 2 + 3 + 4 + |
G|----------------|----------------|
D|----------------|----------------|
A|----------------|0-------2-----4-|
E|2-------------02|----------------|

Riff Variation 1

 |1 + 2 + 3 + 4 + |1 + 2 + 3 + 4 + |
G|----------------|----------------|
D|----------------|----------------|
A|----------------|0-------2---4---|
E|2-------------02|--------------0-|

Riff Variation 2

 |1 + 2 + 3 + 4 + |1 + 2 + 3 + 4 + |
G|----------------|----------------|
D|----------------|----------------|
A|----------------|0-------2---x4--|
E|2-------------02|----------------|

|x = Mute note

-Intro-
Intro x |, Main Riff x |||*

-Verse 1-
Main Riff x |||| ||*

sworn to fast with all my might
the clay was soft, the future bright
old fashioned ways that won't erase
out of control this building gate

-Chorus 1-
Main Riff x |||/

blinded like new,
i'm feeling much stranger 'bout you
blinded like new,
i'm feeling much stranger 'bout you


-Verse 2-
Main Riff x \||| |/*

despite the shape this twisted form
with open arms into the storm
kept me, kept and wanting more
i saw you peaking through the door

-Chorus 2-
Main Riff x |||/

blinded like new,
i'm feeling much stranger 'bout you
blinded like new,
i'm feeling much stranger 'bout you

-Outro-
Main Riff x ||*|*/*, end on E

/ play riff varitaiton 1
\ play riff variation 2
* drum roll

=============================================================================
Suggest correction
Give kudos to tab author, rate the tab!
1 2 3 4 5
comments
print report bad tab
1 comment total.
0 reply
edfred91 50 wrote on January 31 2011, 06:19 pm

nice one mate, sorted out my version!

guest
You may want to rate the tab now too:
select rating
Wanna post a correction for this tab? Suggest correction