Oops, an error
Loading. Please wait.

Dixie Chicken tab

version 3
version 3

Whole song

Interactive

454 views 3 this week
no commentswrite comment
1 2 3 4 5
3 more votes to show rating
add to favorites
×
Save as Personal and add changes to this tab that will be seen only by you. Learn more ›
×
You can save this tab as Personal to edit and correct it or add notes. All changes will be seen only by you. Learn more »
launch autoscroll
font size
0
reset
how to read this tab
guitar tuner
edit
Autoscroll
slow
fast
+/-
esc
set tempo
stop
Author
Difficulty
DIXIE CHICKEN

As recorded by Little Feat
(From the 1973 Album DIXIE CHICKEN)

Words and Music by Lowell George & Martin Kibbee

Transcribed by Slowhand


Gtr I (E A D G B D) - 'Lowell George - Electric Guitar / 1st string one step down: EADGBD'
Gtr II (E A D G B E) - 'Bill Payne - Piano '
Gtr III (E A D G B E) - 'Paul Barrere - Electric Guitar '


 Intro
  Q=80(16=s16)
  N.C.
 4/4
  Gtr I (El. Gtr. w/ slide / Tune 1st string one step down: EADGBD)
  W          H    Q  E S S   W
|----------|---------------|------------------------------------|
|----------|---------------|------------------------------------|
|----------|---------------|------------------------------------|
|----------|---------------|------------------------------------|
|----------|---------------|------------------------------------|
|----------|-------------3s|=5----------------------------------|
|
| Gtr II (Piano arr. for Gtr.)
| W          W               S  S  S  S  S  S  S  S  S  S E Q
|----------|---------------|------------------------------------|
|----------|---------------|---12-12-12-12-12-12-12-12-14-------|
|----------|---------------|---13-13-13-13-13-13-13-13-14-------|
|----------|---------------|------------------------------------|
|----------|---------------|------------------------------------|
|----------|---------------|------------------------------------|


  +H                        S  S  S  S S S     E
|---------------------------------------------------|
|---------------------------------------------------|
|---------------------------------------------------|
|---------------------------------------------------|
|------------------------------4--------------------|
|-(5)-----------------------------5--0-3s5-----3s===|
|
|  S   S  S  S  S  S  S  S  S  S  S  S E    a  S  S
|---------------------------------------------------|
|-----12-12-12-12-12-12-12-12-14-----------------14-|
|-----13-13-13-13-13-13-13-13-14-14-----------------|
|-----------------------------------14-----12s14----|
|---------------------------------------------------|
|---------------------------------------------------|


              ~~~
  Q          +H.
|--------------------------------------------|
|--------------------------------------------|
|--------------------------------------------|
|--------------------------------------------|
|--------------------------------------------|
|-5----------(5)-----------------------------|
|
| S  S  S  S  S   S  S  S  S  S  S  S  +E  E
|--------------------------------------------|
|---12-12-12-12--12-12-12-12-14--------------|
|---13-13-13-13--13-13-13-13-14-14-----------|
|----------------------------------14-(14)---|
|--------------------------------------------|
|--------------------------------------------|


  E     E     S  S  S  S +E     S S +Q
|-----------------------------------------||
|-----------------------------------------||
|------/1-----------------------7-5-(5)/--||
|-------------2-----2-----------7-5-(5)/--||
|---------------/4-----0-(0)--------------||
|-----------------------------------------||
|
| S  S  S  S  S  S  S  S  S   S E    Q
|-----------------------------------------||
|---12-12-12-12-12-12-12-12--14-----------||
|---13-13-13-13-13-13-13-13--14-----------||
|-----------------------------------------||
|-----------------------------------------||
|-----------------------------------------||


 1st Verse
  N.C.
  S  S  E     Q           H
|------------------------------------------|
|------------------------------------------|
|------------------------------------------|
|-7----------------------------------------|
|------------------------------------------|
|------------------------------------------|
|
| S  S  S  S  S  S  S  S  S  S S  S  +E  E
|------------------------------------------|
|---12-12-12-12-12-12-12-12-14-------------|
|---13-13-13-13-13-13-13-13-14-------------|
|--------------------------------14-(14)---|
|------------------------------------------|
|------------------------------------------|


  Gtr II
  S  S  S  S  S  S  S  S  S  E. S  E.
|-------------------------------------|
|---12-12-12-12-12-12-12-12-15--------|
|---13-13-13-13-13-13-13-13-16--------|
|---------------------------------14--|
|-------------------------------------|
|-------------------------------------|


  E  S  S  S  S  S  S  S  E.  +E  E   E  S  S  S  S  S  S S  E  S  E E
|---11-11-11-11-11-11-11-12--(12)---|---11-11-11-10-10-10---------------|
|---12-12-12-12-12-12-12------------|---12-12-12-12-12-12---14-12-10-8--|
|------------------------13--(13)---|-----------------------------------|
|-----------------------------------|-----------------------14-12-11-9--|
|-----------------------------------|---------------------0-------------|
|-----------------------------------|-----------------------------------|


    D         N.C.                A5        E
  Gtr I
  W                               W
|-------------------------------|-----------------|
|-------------------------------|-----------------|
|-------------------------------|-----------------|
|-------------------------------|-----------------|
|-------------------------------|-----------------|
|-------------------------------|-----------------|
|
| Gtr II
| e  E E  E S  S  S  S  S S S S   e E E E e E E E
|---10---10---------------------|-----------------|
|-7-10---10---14-13-12-10-------|-----------9-9-9-|
|---11---11---------------9-9-7-|-9-9-9-9---9-9-9-|
|-7-12---12---14-13-12-11-------|-7-7-7-7---9-9-9-|
|-------------------------------|-----------7-7-7-|
|-------------------------------|---------0-------|


                            A C#5D5
  W                 H       E Q  E
|-----------------|-----------------||
|-----------------|-----------------||
|-----------------|-----------------||
|-----------------|-----------6--7--||
|-----------------|-----------4--5--||
|-----------------|-----------------||
|
| e E E E e E E E   e E E E E Q  E
|-----------------|---------5-------||
|---9-9-9---9-9-9-|---9-9-9-5-------||
|---9-9-9---9-9-9-|---9-9-9-6-------||
|---9-9-9---9-9-9-|---9-9-9-7-------||
|---7-7-7---7-7-7-|---7-7-7---4--5--||
|-0-------0-------|-0---------------||


 Chorus
  A5                A       A5                         E5
  PM     PM         PM    PM        PM    PM             PM|
  S S S  S  E   S S S S S S E S S   S S S S  S  S E  S S S S S S  S S
|---------------------------------|-----------------------------------|
|---------------------------------|-----------------------------------|
|---2-------2---------2-----2-----|---2------2---------9-----9--------|
|---------------------------------|------------------------------11s9-|
|-0------0------3h4-0-----0---3h4-|-0-----0-------x/-----7-7----------|
|---------------------------------|-----------------------------------|
|
| S S S +E    E   S E   E   Q       S S S S +E    E  S S E   E    E
|-5---5-(5)---------5-------5-----|---5---5-(5)-----------------------|
|-5---5-(5)---------5-------5-----|---5---5-(5)-----------------------|
|-------------------6-------------|--------------------9-----9--------|
|-7---7-(7)---------7-------7-----|---7---7-(7)--------9-----9--------|
|---------------------------------|--------------------7-----7--------|
|---------------------------------|-----------------------------------|


   PM     PM
   S  S S S E  S S S S S S E  S S
|---------------------------------|
|---------------------------------|
|-----9-----9--------9-----9------|
|-------------11s9----------------|
|--7------7--------------7---11s9-|
|---------------------------------|
|
| +S  S E   E  E   S S E   Q
|---------------------------------|
|---------------------------------|
|-(9)-----------------------------|
|-(9)-2-----2--------2-----2------|
|-(7)-2-----2--------2-----2------|
|-----0-----0--------0-----0------|


  A5          N.C.    A5
  Q  E. S  E   Q  E   E e S S S S +S  S S S S S S S
|-------------------|-------------------------------|
|-------------------|-------------------------------|
|----9--9-----------|-------------------------2-----|
|----7--7-----------|-----------------4---4-4---2---|
|-0-----------/4----|-0---0h2-4p0-(0)---4---------x-|
|-----------------0-|---2---------------------------|
|
| Q  E. S +E   Q  E   Q   E.    S +Q        Q
|-5--5--5-(5)-------|-5---5-----5-(5)---------------|
|-5--5--5-(5)-------|-5---5-----5-(5)---------------|
|-------------------|-------------------------------|
|-7--7--7-(7)-------|-7---7-----7-(7)---------------|
|--------------4----|-------------------------------|
|-----------------0-|-------------------------------|


 Interlude
  N.C.
  S S E E S S S S S S Q    a S S E E. S S S S S S S E
|------------------------|----------------------------|
|------------------------|----------------------------|
|-2-2-----------2---2----|-----2--------------2-------|
|------------------------|------------4p2-------4-----|
|-----------3h4----------|-3h4------------3h4-----3---|
|------------------------|----------------------------|


                                                2nd Verse
                                                 N.C.
                                                        PM|
  S S E E S S S S S S S S S S   S S E Q  H       Q  E S S +S  S E     Q
|-----------------------------|---------------||---------------------------|
|-----------------------------|---------------||---------------------------|
|---2-----------2-----2-------|---2-----------||--------------2------------|
|-----------------4-----4-----|---------------||---------------------------|
|-0---------3h4-----------3h4-|-0-------------||--------0-(0)--------------|
|-----------------------------|---------------||---------------------------|
|
| Gtr II
|                                                               |-3-|
| W                             W                H         S  S S S S E E
|-----------------------------|---------------||------------------------5--|
|-----------------------------|---------------||--------------------5-7----|
|-----------------------------|---------------||----------------5h6--------|
|-----------------------------|---------------||--------------7------------|
|-----------------------------|---------------||---------------------------|
|-----------------------------|---------------||---------------------------|


  PM       PM      PM
  S S E Q  S S  S  S  E     S  S
|--------------------------------|
|--------------------------------|
|------------9--------9----------|
|---2----------------------11s=9-|
|-0--------7-------7-------------|
|--------------------------------|
|
| H        E    S  S  S  S  S  S
|--------------11-11-11-11-11-11-|
|--------------12-12-12-12-12-12-|
|--------------------------------|
|--------------------------------|
|--------------------------------|
|--------------------------------|


                                                    A5
                                                      Gtrs I, III (El. Gtr.)
   PM         PM      PM               PM
   S  S  E Q  S S  S  S  S  S  E       S  S  E Q  E   Q          E
|-----------------------------------|------------------------------|
|-----------------------------------|------------------------------|
|-----9---------9--------9----------|-----9------------------------|
|-----------------------------------|------------------------------|
|--7----------7-------7-------------|--7--------------3----------4-|
|-----------------------------------|------------------------------|
|
|  S  E.   Q  E    S  S  S  S  S  S    S  E.   Q  S E   S +S  E.
|-11-12-----------11-11-11-11-11-11-|-11-12---------5---5-(5)-5----|
|-12--------------12-12-12-12-12-12-|-12------------5---5-(5)-5----|
|----13-----------------------------|----13------------------------|
|-----------------------------------|---------------7---7-(7)-7----|
|-----------------------------------|------------------------------|
|-----------------------------------|------------------------------|


      D                    A
                       PM     PM
  S S  S  S  +E      e S S S  S  S  S S S
|-----------------------------------------|
|-----------------------------------------|
|---7--------------------2-------2--------|
|------7------------------------------4---|
|---------9--(9)-------0------0-----------|
|--------------------8--------------------|
|
| E    E     +S   E.   E   E    +S  E   S
|-----10----(10)-10--------0----(0)-0---0-|
|-----10----(10)-10--------2----(2)-2---2-|
|-----11----(11)-11--------2----(2)-2---2-|
|-----12----(12)-12--------2----(2)-2---2-|
|--------------------------0----(0)-0---0-|
|-----------------------------------------|
|
| Gtr III
| E    S  S  +E      E e   S  S +E    E
|-----------------------------------------|
|-----------------------------------------|
|--------------------2--------------------|
|-0------/4--(4)----------------------2---|
|----------------------0-----/4-(4)-------|
|-----------------------------------------|


                       E7
   PM      PM    PM                  PM
   S  S S  S  S  S S S S  S S  S  S  S S S
|------------------------------------------|
|------------------------------------------|
|-----2-------2-------------------9----9---|
|------------------4--------------9----9---|
|--0-------0-----0--------7-7--------7-----|
|------------------------------------------|
|
| +E    E    +E    E   E.      S +E    E
|-(0)---0----(0)---0---0-------0-(0)---0---|
|-(2)---2----(2)---2---0-------0-(0)---0---|
|-(2)---2----(2)---2---1-------1-(1)---1---|
|-(2)---2----(2)---2---0-------0-(0)---0---|
|-(0)---0----(0)---0---2-------2-(2)---2---|
|----------------------0-------0-(0)---0---|
|
|  E    S  S +E    E   E    S  S +E    E
|------------------------------------------|
|------------------------------------------|
|------------------------------------------|
|------------------2-----------------------|
|--0------/4-(4)-----------------------2---|
|----------------------0------/4-(4)-------|


                                                            A   N.C.
  S  S S  S  S  S E S  S S  S  E  S S   S  E    S  S  S S S S S Q  E
|-------------------------------------|------------------------------|
|----3-3--3--3--3-3----3-3--3--3--3-3-|----3-------3----3---2--------|
|----4-4--4--4--4-4----4-4--4--4--4-4-|----4-------4----4---2--------|
|-------------------------------------|------------------------------|
|-------------------------------------|-------------------------3--4-|
|-------------------------------------|------------------------------|
|
| E.      S +E    E E.      S +E  E     E.      S +E    E   E   Q  E
|-0-------0-(0)---0-0-------0-(0)-0---|-0-------0-(0)---0---0--------|
|-0-------0-(0)---0-0-------0-(0)-0---|-0-------0-(0)---0---2--------|
|-1-------1-(1)---1-1-------1-(1)-1---|-1-------1-(1)---1---2--------|
|-0-------0-(0)---0-0-------0-(0)-0---|-0-------0-(0)---0---2--------|
|-2-------2-(2)---2-2-------2-(2)-2---|-2-------2-(2)---2---0---3--4-|
|-0-------0-(0)---0-0-------0-(0)-0---|-0-------0-(0)---0------------|
|
| E    S  S +E    E E    S  S +E  E     E    S  S +E    E   E   Q  E
|-------------------------------------|------------------------------|
|-------------------------------------|------------------------------|
|-------------------------------------|------------------------------|
|-------------------------------------|------------------------------|
|-----------------2---------------2---|-----------------2---0---3--4-|
|-0------/4-(4)-----0------/4-(4)-----|-0------/4-(4)----------------|


  D                          A
   S S  S  S  +E   S  S  +S   S  S  S  S   S  E
|-----------------------------------------------|
|----------------------------10-10-10-10--10-10-|
|----7------------------------9--9--9--9---9-11-|
|-------7----------9h11-(11)--------------------|
|----------9--(9)-------------------------------|
|-----------------------------------------------|
|
|  E    S  S  +E   E      S   S  S  S  S   S  E
|-10---10-10-(10)-10----------0--0--0--0---0--0-|
|-10---10-10-(10)-10----------2--2--2--2---2--2-|
|-11---11-11-(11)-11----------2--2--2--2---2--2-|
|-12---12-12-(12)-12----------2--2--2--2---2--2-|
|-----------------------------0--0--0--0---0--0-|
|-----------------------------------------------|
|
|  E    S  S  +E   E      e      S  S +E      E
|-----------------------------------------------|
|-----------------------------------------------|
|------------------2----------------------------|
|--0------/4--(4)-----------------------------2-|
|-------------------------0--------/4-(4)-------|
|-----------------------------------------------|


                         E7
  S  S  S  S  S   S  S S S  S S  S  S  S  S S
|---------------------------------------------|
|---10-10-10-10--10-10------------------------|
|----9--9--9--9---9-11------9-9--9--9--9------|
|---------------------------9-9--9--9--9-11---|
|---------------------------------------------|
|---------------------------------------------|
|
| Q           S   S  S S E.      S +E     E
|-0-----------0---0--0-0-0-------0-(0)----0---|
|-2-----------2---2--2-2-0-------0-(0)----0---|
|-2-----------2---2--2-2-1-------1-(1)----1---|
|-2-----------2---2--2-2-0-------0-(0)----0---|
|-0-----------0---0--0-0-2-------2-(2)----2---|
|------------------------0-------0-(0)----0---|
|
| E     S  S +E      E   E    S  S +E     E
|---------------------------------------------|
|---------------------------------------------|
|---------------------------------------------|
|--------------------2------------------------|
|-0-------/4-(4)--------------------------2---|
|------------------------0------/4-(4)--------|


  S S S  S  S  S  S S S S  S  S  S  S  S S
|------------------------------------------|
|------------------------------------------|
|---9-9--9--9--9--------9--9--9--9--9------|
|---9-9--9--9--9-11-----9--9--9--9--9-11---|
|------------------------------------------|
|------------------------------------------|
|
| E   S  S  S  S  E   S E.       E     E
|-0---0--0--0--0--0-----0--------0-----0---|
|-0---0--0--0--0--0-----0--------0-----0---|
|-1---1--1--1--1--1-----1--------1-----1---|
|-0---0--0--0--0--0-----0--------0-----0---|
|-2---2--2--2--2--2-----2--------2-----2---|
|-0---0--0--0--0--0-----0--------0-----0---|
|
| E   S  S +E     E   E    S  S +E     E
|------------------------------------------|
|------------------------------------------|
|------------------------------------------|
|------------------------------------------|
|-----------------2--------------------2---|
|-0-----/4-(4)--------0------/4-(4)--------|


                                 Chorus
    A5                A   A5         A5                 E5
  S S S  S  S  S  S S E Q    E     H                +Q.          E
|---------------------------12s||=14---------------(14)---------12s=|
|---------------------------12s||=14---------------(14)---------12s=|
|---9-9--9--9--9------2--------||-----------------------------------|
|---9-9--9--9--9-11---2--------||-----------------------------------|
|---------------------0-4------||-----------------------------------|
|------------------------------||-----------------------------------|
|
| S S E    +S  S  E   E E Q        S S S S +E  E     S  S E   E  E
|---5-5----(5)--------5---5----||----5---5-(5)----------------------|
|---5-5----(5)--------5---5----||----5---5-(5)----------------------|
|---------------------6--------||-----------------------9-----9-----|
|---7-7----(7)--------7---7----||----7---7-(7)----------9-----9-----|
|------------------------------||-----------------------7-----7-----|
|------------------------------||-----------------------------------|
|
| E   S  S +E     E   E Q    E     S S S S +E  S S   S  S S S Q
|------------------------------||-----------------------------------|
|------------------------------||-----------------------------------|
|------------------------------||--2-2---2-(2)----------2---0-2-----|
|------------------------------||--2-2---2-(2)-4-2------2---0-2-----|
|-----------------2---0-4------||--0-0---0-(0)----------0---0-0-----|
|-0-----/4-(4)---------------0-||-----------------------------------|


                ~~~~~~~~~~~~
   Q     S E.   Q       +S  S  S S
|-14-------7s===9-------(9)---12---|
|-14-------7/----------------------|
|----------------------------------|
|----------------------------------|
|----------------------------------|
|----------------------------------|
|
|  S S E E    E S S E    Q
|----------------------------------|
|----------------------------------|
|----9---9--------9------9---------|
|----9---9--------9------9---------|
|----7---7--------7------7---------|
|----------------------------------|
|
|  S S E E    E S S S S  E     E
|----------------------------------|
|----------------------------------|
|----2---2-------------------------|
|----2---2----4---2---0--2---------|
|----0---0--------2---0--2-----4---|
|-----------------0---0--0---------|


  A5                         N.C.        A5
                                 ~       ~
   E.     S +S  S S S  S  S  S S E S S   Q   S  E  S  E   Q   a E
|-12\-------------9---12s(9)-----------|----------------------------|
|---------8-(8)s9------------8s9-------|----------------------------|
|--------------------------------9-7---|----------14-----/6---6s4---|
|--------------------------------------|-7--13s14-------------------|
|--------------------------------------|----------------------------|
|--------------------------------------|----------------------------|
|
|  Q         E.     S  E     Q     E     Q   E.    S +Q     Q
|--5---------5------5------------------|-5---5-----5-(5)------------|
|--5---------5------5------------------|-5---5-----5-(5)------------|
|--------------------------------------|----------------------------|
|--7---------7------7------------------|-7---7-----7-(7)------------|
|----------------------------4---------|----------------------------|
|----------------------------------0---|----------------------------|
|
|  S  S S S  E    E    S  S  S S E E     Q   E.    S  E   Q     E
|--------------------------------------|----------------------------|
|--------------------------------------|----------------------------|
|--------------------------------------|----------------------------|
|-----2---0--2------------2----0-2-----|-2---2-----2----------------|
|-----2---0--2----4-------2----0-2-----|-2---2-----2------4---------|
|-----0---0--0------------0----0-0-----|-0---0-----0------------0---|


                                   Guitar Solo
                                    A5
  E S S S  S S S +E  S S S S S S    S  S  S  S  S S S  S S  S S  S  S  S  S  S
|--------------------------------||-----------------------------------14-------|
|--------------------------------||---10-10-10-10s8---10---10---13s14----13s14-|
|-2------------------------------||-----------------9--------------------------|
|---4s2-2----------------4s2-----||--------------------------------------------|
|----------2s4-0-(0)-2s4-----2s4-||--------------------------------------------|
|--------------------------------||--------------------------------------------|
|
| W                                 E     E     Q        H
|-5------------------------------||-5------------------------------------------|
|-5------------------------------||-5------------------------------------------|
|--------------------------------||--------------------------------------------|
|-7------------------------------||-7------------------------------------------|
|--------------------------------||--------------------------------------------|
|--------------------------------||--------------------------------------------|
|
| Q     E.     S  E  S S S S S S    S  S  S  S  S S S  S S  S S  S  S  S  S  S
|--------------------------------||-----------------------------------12-------|
|--------------------------------||---10-10-10-10s8---10---10---13s14----13-14-|
|-2-----2------2-----------------||-----------------9--------------------------|
|-2-----2------2---------4s2-----||--------------------------------------------|
|-0-----0------0-----2s4-----2s4-||--------------------------------------------|
|--------------------------------||--------------------------------------------|


  A
  Gtr I
  S  S  S  S  S S S  S S S  S S S S S S
|---------------------------------------|
|---10-10-10-10s8---10---8--------------|
|-----------------9--------\7p5-7-5-----|
|-----------------------------------7-7-|
|---------------------------------------|
|---------------------------------------|
|
| H                    H
|-5-------------------------------------|
|-5-------------------------------------|
|-6-------------------------------------|
|-7-------------------------------------|
|---------------------------------------|
|---------------------------------------|
|
| Gtr III
| S  S  S  S  S S S  S S S  S S S S S S
|---------------------------------------|
|---10-10-10-10s8---10---8--------------|
|-----------------9--------\7p5-7-5-----|
|-----------------------------------7-7-|
|---------------------------------------|
|---------------------------------------|


  A7
  S  S  S  S  S S  S  S S  S S  S  S   S   S  S
|-------------------------------------14---------|
|---10-10-10-10s8----10---10---13s14------13-14--|
|------------------9-----------------------------|
|------------------------------------------------|
|------------------------------------------------|
|------------------------------------------------|
|
| E     S  S +S E.      E    S  S +S   E.
|-------5--5-(5)5------------5--5-(5)--5---------|
|-------5--5-(5)5------------5--5-(5)--5---------|
|-------6--6-(6)6------------6--6-(6)--6---------|
|-------5--5-(5)7------------5--5-(5)--7---------|
|------------------------------------------------|
|-5---------------------5------------------------|
|
| S  S  S  S  S S  S  S S  S S  S  S   S   S  S
|-------------------------------------12---------|
|---10-10-10-10s8----10---10---13s14------13-14--|
|------------------9-----------------------------|
|------------------------------------------------|
|------------------------------------------------|
|------------------------------------------------|


  Gtr I
  S  S  S  S  S S S  S S  S  S S S     S S  S
|---------------------------------------------|
|---10-10-10-10-8-----------------------------|
|-----------------x--5s6-----7---5s====6------|
|------------------------(7)---7---------7----|
|-------------------------------------------7-|
|---------------------------------------------|
|
| S  S  S  S  S E    S S  E    S E       E
|----5--5--5--5-5----5----5----5-5------------|
|----5--5--5--5-5----5----5----5-5------------|
|----6--6--6--6-6----6----6----6-6------------|
|----5--5--5--5-7----5----5----7-7------------|
|---------------------------------------------|
|-5-------------------------------------------|
|
| Gtr III
| S  S  S  S  S S S  S S  S  S S E       E
|---------------------------------------------|
|---10-10-10-10s8---10------------------------|
|-----------------9----------5-7-5b5.5---7\---|
|-------------------------7-------------------|
|---------------------------------------------|
|---------------------------------------------|


           A5
  H..                               E
|-------------------------------------------|
|-------------------------------------------|
|-------------------------------------------|
|-------------------------------------------|
|-0-----------------------------------------|
|-----------------------------------3b5-----|
|
| E   S    S  Q       S S S S  Q
|----------5----------5-5---5---------------|
|----------5----------5-5---5---------------|
|-------------------------------------------|
|----------7----------7-7---7---------------|
|-------------------------------------------|
|-------------------------------------------|
|
|                           ~~~~~~
| E   S    S +E   S S S S S S +S  S S     S
|-----7b8==7-(7)r---------------------------|
|-----7b8==7-(7)r-5---5---------------------|
|-------------------7---5-----------5b5.5---|
|-------------------------7-7-(7)-7-------7-|
|-------------------------------------------|
|-------------------------------------------|


  H.                                     Q
|----------------------------------------------||
|----------------------------------------------||
|-2--------------------------------------------||
|-2--------------------------------------------||
|-0--------------------------------------------||
|----------------------------------------------||
|
| E.         S Q             E      E    Q
|-5----------5---------------5-----------------||
|-5----------5---------------5-----------------||
|----------------------------------------------||
|-7----------7---------------7-----------------||
|----------------------------------------------||
|----------------------------------------------||
|
| S  S S     S S S S S      +S   S  S  S E S S
|----------------------------------------------||
|----------------------------------------------||
|--------------------5b5.5==(5)r---[7]---5-----||
|------5b5.5---7-5---------------7-----7---7-7-||
|----7-------7-----7---------------------------||
|----------------------------------------------||


 3rd Verse
  N.C.
   PM     PM        PM     PM               PM           PM      PM
   S  S S S S S S S S S S  S  S  S  S  S    S  S  E E  e S S  S  S  S  S  S  S
|----------------------------------------|-------------------------------------|
|----------------------------------------|-------------------------------------|
|-----2-----2---------2-------2----------|-----2-----------9--------9----------|
|----------------------------------------|-------------------------------11----|
|--0------0---------0------0-------------|--0---------/5-7-------7-------------|
|---------------3p0-----------------3p=0-|-------------------------------------|
|
|  H                E   S  S  S  S  S  S    S  E.   Q    E    S  S  S  S  S  S
|----------------------------------------|-------------------11-11-11-11-11-11-|
|-------------------------12-12-12-12-12-|-12-14-------------12-12-12-12-12-12-|
|-------------------------13-13-13-13-13-|-13-14-------------------------------|
|----------------------------------------|-------------------------------------|
|----------------------------------------|-------------------------------------|
|----------------------------------------|-------------------------------------|
|
| +W                                        W
|----------------------------------------|-------------------------------------|
|----------------------------------------|-------------------------------------|
|----------------------------------------|-------------------------------------|
|-(7)------------------------------------|-------------------------------------|
|----------------------------------------|-------------------------------------|
|----------------------------------------|-------------------------------------|


    PM
    S  S  E Q  S S  S  S  S  S  S  S    S  S    S  S  S  S E        E        Q          E
|------------------------------------|------------------------------------------------------|
|------------------------------------|------------------------------------------------------|
|------9-----------------------------|-----9-------9--9-------------------------------------|
|----------------9-----9--9----11----|------------------------------------------------------|
|---7------------7-----7--7----------|---------------------3b3.5----0--------3--------------|
|------------------------------------|------------------------------------------------------|
|
|   S  E.   Q  E    S  S  S  S  S  S    S  E.         Q             S     S  S  S  S  S E
|--11-12-----------11-11-11-11-11-11-|-11-12------------------------------------------------|
|--12--------------12-12-12-12-12-12-|-12--------------------------14----14-12-10--8--7-5---|
|-----13-----------------------------|----13------------------------------------------------|
|------------------------------------|-----------------------------14----14-12-11--9--7-5---|
|------------------------------------|------------------------------------------------------|
|------------------------------------|------------------------------------------------------|
|
|   H          H                        S  S   +S  S +E    S     S  E        S  S +S  S S S
|-/12--------------------------------|------------------------------------------------------|
|------------------------------------|------------------------------------------------------|
|------------------------------------|-----4b6r(4)-2-(2)---4-----2--4b6======4--4r(4)-2-----|
|------------------------------------|--------------------------------------------------4---|
|------------------------------------|------------------------------------------------------|
|------------------------------------|------------------------------------------------------|


       D                     A
  S E.         S   S  E S  S  S  S  S  S  S S
|---------------------------------------------|
|-------------------------10-10-10-10-----x---|
|---7----------7-----------9--9--9--9-----x---|
|---7----------7------------------------------|
|---------------------------------------------|
|---------------------------------------------|
|
| E     E     +S   E.   E     S  S +S  E.
|------10----(10)-10----------5--5-(5)-5------|
|------10----(10)-10----------5--5-(5)-5------|
|------11----(11)-11----------6--6-(6)-6------|
|------12----(12)-12----------7--7-(7)-7------|
|---------------------------------------------|
|---------------------------------------------|
|
| E     S  S  +E      E E     S  S +E     E
|---------------------------------------------|
|---------------------------------------------|
|---------------------2-----------------------|
|-0-------/4--(4)-------------------------2---|
|-----------------------0-------/4-(4)--------|
|---------------------------------------------|


       D                      E7
  S  E     S   S   S  S S S S S  S  S  E.
|-------------------------------------------|
|---10----10--10------x---------------------|
|----9-----9---9------x-----9-9--9--9-------|
|---------------------------9-9--9--9-------|
|-------------------------------------------|
|-------------------------------------------|
|
| E     E     +S   E.     E   E    +S  E.
|------10----(10)-10------------------------|
|------10----(10)-10----------9----(9)-9----|
|------11----(11)-11----------7----(7)-7----|
|------12----(12)-12----------9----(9)-9----|
|-----------------------------7----(7)-7----|
|-------------------------------------------|
|
| E     S  S  +E      E   E   S  S +E     E
|-------------------------------------------|
|-------------------------------------------|
|-------------------------------------------|
|---------------------2---------------------|
|-0-------/4--(4)-------------------------2-|
|-------------------------0-----/4-(4)------|


  S S  S  S  S  S S S S S S  S  S  S S S
|----------------------------------------|
|----------------------------------------|
|---7--7--7--7----9-----7-7--7--7--7-7-7-|
|---9--9--9--9----9-----9-9--9--9--7-7-9-|
|----------------------------------------|
|----------------------------------------|
|
| S E.       E    E   S S E     E    E
|----------------------------------------|
|---9--------9----------9-9-----9----9---|
|---7--------7----------7-7-----7----7---|
|---9--------9----------9-9-----9----9---|
|---7--------7----------7-7-----7----7---|
|----------------------------------------|
|
| E    S  S +E    E   E   S  S +E    E
|----------------------------------------|
|----------------------------------------|
|----------------------------------------|
|----------------------------------------|
|-----------------2------------------2---|
|-0------/4-(4)-------0-----/4-(4)-------|


                     A5           D                A
  S S S  S  E  S S E Q     E   E.     S   E  S S S  S E     S  S E
|----------------------------|-------------------------------------|
|----------------------------|---------------------10------10------|
|---7-7--7-----9-------------|-7------7------x------9-------9------|
|---9-9--9-----9-------------|-7------7------x---------------------|
|------------------0-3-----4-|-------------------------------------|
|----------------------------|-------------------------------------|
|
| S S E     E  E   E E +E  E   E   E     +E  E   S  E    S  E    E
|--------------------5-(5)-5-|----10----(10)--------5----x--5------|
|---9-9-----9--------5-(5)-5-|----10----(10)--------5----x--5------|
|---7-7-----7----------------|----11----(11)--------6----x--6------|
|---9-9-----9--------7-(7)-7-|----12----(12)--------7----x--7------|
|---7-7-----7----------------|-------------------------------------|
|----------------------------|-------------------------------------|
|
| E   S  S +E  E   E Q     E   E   S  S  +E  E   E    S  S +E    E
|----------------------------|-------------------------------------|
|----------------------------|-------------------------------------|
|----------------------------|---------------2---------------------|
|----------------------------|-0-----/4--(4)---------------------2-|
|--------------2---0-3-----4-|-------------------0------/4-(4)-----|
|-0-----/4-(4)---------------|-------------------------------------|


       D                 E7
  S  S  S  S  S  S S S S S S  S  S  S S S
|-----------------------------------------|
|---10-10-10-10----x-x--------------------|
|----9--9--9--9----x-x---9-9--9--9----x---|
|------------------------9-9--9--9----x---|
|-----------------------------------------|
|-----------------------------------------|
|
| E     E     Q        S E    S  E    E
|------10---------------------------------|
|------10----------------9----9--9--------|
|------11----------------7----7--7--------|
|------12----------------9----9--9--------|
|------------------------7----7--7--------|
|-----------------------------------------|
|
| E     S  S +E    E   E   S  S +E    E
|-----------------------------------------|
|-----------------------------------------|
|-----------------------------------------|
|------------------2----------------------|
|-0-------/4-(4)----------------------2---|
|----------------------0-----/4-(4)-------|


  S S S  S  S  S S S S S E     S  E   S
|----------------------------------------|
|----------------------------------------|
|-9---x--9-----x-9---x-9-------7------9--|
|-9---x--9-----x-9---x-9-------9------9--|
|----------------------------------------|
|----------------------------------------|
|
| E   S  S +S  S E   S E    S  E    E
|----------------------------------------|
|-9------9-(9)---9-----9-------9---------|
|-7------7-(7)---7-----7-------7---------|
|-9------9-(9)---9-----9-------9---------|
|-7------7-(7)---7-----7-------7---------|
|----------------------------------------|
|
| E   S  S +E    E   E   S  S +E    E
|----------------------------------------|
|----------------------------------------|
|----------------------------------------|
|----------------------------------------|
|----------------2------------------2----|
|-0-----/4-(4)-------0-----/4-(4)--------|


                                          Chorus
                     A   N.C.                   A5              A       A5
  S E    S  S  S S S   E  S  S  +E    E     H..                            E
|------------------------------------12s||=14-----------------------------12s|
|--------------------/14-14-14-(14)\-12s||=14-----------------------------12s|
|-9------9-----9-9---/14-14-14-(14)\----||-----------------------------------|
|-9------9-----9-9----------------------||-----------------------------------|
|---------------------------------------||-----------------------------------|
|---------------------------------------||-----------------------------------|
|
| E   S  S +S  S E     E  Q           E     S   S E   +S  S E   E   E   Q
|----------------------5----------------||------5-5---(5)-------5-------5----|
|-9------9-(9)---9-----5----------------||------5-5---(5)-------5-------5----|
|-7------7-(7)---7-----6----------------||----------------------6------------|
|-9------9-(9)---9-----7----------------||------7-7---(7)-------7-------7----|
|-7------7-(7)---7--------4-------------||-----------------------------------|
|-------------------------------------0-||-----------------------------------|
|
| e   S  S +E    E     e  Q           E     S   S S S +E    S S S S S S Q
|---------------------------------------||-----------------------------------|
|---------------------------------------||-----------------------------------|
|---------------------------------------||--2---2---2-(2)---------2---0-2----|
|---------------------------------------||--2---2---2-(2)---4-2---2---0-2----|
|----------------2-----0--4-------------||--0---0---0-(0)---------0---0-0----|
|-0-----/4-(4)------------------------0-||-----------------------------------|


                         E5
                       ~
   Q        +S   E   S Q       S  S S  S
|-14-------(14)--------9---------12---12--|
|-14-------(14)-\8s==9--------------------|
|-----------------------------------------|
|-----------------------------------------|
|-----------------------------------------|
|-----------------------------------------|
|
|  S S S S  +E     E   S S E   E    E
|----5---5--(5)---------------------------|
|----5---5--(5)---------------------------|
|------------------------9-----9----------|
|----7---7--(7)----------9-----9----------|
|------------------------7-----7----------|
|-----------------------------------------|
|
|  S S E     E     E   S S S S E    E
|-----------------------------------------|
|-----------------------------------------|
|----2-------2----------------------------|
|----2-------2-----4-----2---0-2----------|
|----0-------0-----------2---0-2----4-----|
|------------------------0---0-0----------|


                                       A5                    N.C.
   S  S S S  S S S S S S S S S E   S   S S S S S S S S +S  S S S +S  S S S
|-12s11-----12-----------------------|-----7--------------------------------|
|-------8--------8s9-----------------|--------------------------------------|
|---------9------------9-9-9---6s==4-|---------7s5-------------6-(6)s4------|
|------------------------------------|---7---------7-7-(7)-------------7----|
|------------------------------------|---------------------7-------------7--|
|------------------------------------|--------------------------------------|
|
|  S  S E    E   E   S S E   Q         Q       E.    S  E    Q         E
|------------------------------------|-5-------5-----5----------------------|
|------------------------------------|-5-------5-----5----------------------|
|------------------------------------|--------------------------------------|
|-----2------2---------2-----2-------|-7-------7-----7----------------------|
|-----2------2---------2-----2-------|-----------------------4--------------|
|-----0------0---------0-----0-------|---------------------------------0----|
|
|  S  S S S  E   E   S S S S E   E     Q       E.    S  E    Q         E
|------------------------------------|--------------------------------------|
|------------------------------------|--------------------------------------|
|------------------------------------|--------------------------------------|
|-----2---0--2---------2---0-2-------|-2-------2-----2----------------------|
|-----2---0--2---4-----2---0-2-------|-2-------2-----2-------4--------------|
|-----0---0--0---------0---0-0-------|-0-------0-----0-----------------0----|


  A5                    N.C.
  S S  S S S  S S   S S  S  S  S  E    E
|-----------------/14-----------------------|
|-----/8----------------12s14s12------------|
|----------5--6------------------14---------|
|-7-------------7---------------------14\---|
|-------------------------------------------|
|-------------------------------------------|
|
| Q        E.       S S  S  S  S  S S  S  S
|-------------------------------------------|
|-------------------------------------------|
|-2--------2--------2---------------------2-|
|-2--------2--------2----------2--4p2--4----|
|-0--------0--------0----2h=4---------------|
|-------------------------------------------|
|
| Q        E.       S S  S  S  S  S S  S  S
|-------------------------------------------|
|-------------------------------------------|
|-2--------2--------2---------------------2-|
|-2--------2--------2----------2--4p2--4----|
|-0--------0--------0----2h=4---------------|
|-------------------------------------------|


       A
  S  S  S  S  S S S  S S  S S  S  S   S  S  S
|------------------------------------14--------||
|---10-10-10-10s8---10---10---13s14-----13s14--||
|-----------------9----------------------------||
|----------------------------------------------||
|----------------------------------------------||
|----------------------------------------------||
|
| E     E     Q        E    S  S +E      E
|-------5----------------------5-(5)-----5-----||
|-------5----------------------5-(5)-----5-----||
|-------6----------------------6-(6)-----6-----||
|-------7----------------------5-(5)-----5-----||
|----------------------------------------------||
|----------------------5-----------------------||
|
| S  S  S  S  S S S  S S  S S  S  S   S  S  S
|------------------------------------12--------||
|---10-10-10-10s8---10---10---13s14-----13s14--||
|-----------------9----------------------------||
|----------------------------------------------||
|----------------------------------------------||
|----------------------------------------------||


 Outro
       A7
  S  S  S  S  S S S  S S S  S S  S  S  S S
|------------------------------------------|
|---10-10-10-10s8---10---8-----------------|
|-----------------9--------\7s5--5--5------|
|--------------------------------------7---|
|----------------------------------------7-|
|------------------------------------------|
|
| E     E     S E    S S E    S +S  E.
|-------5-------5----5---5-----------------|
|-------5-------5----5---5----7-(7)-7------|
|-------6-------6----6---6----6-(6)-6------|
|-------5-------5----5---5----5-(5)-5------|
|------------------------------------------|
|------------------------------------------|
|
| S  S  S  S  S S S  S S S  S S  S  S  S S
|------------------------------------------|
|---10-10-10-10s8---10---8-----------------|
|-----------------9--------\7s5--7--5------|
|--------------------------------------7-7-|
|------------------------------------------|
|------------------------------------------|


  S  S  S  S  S S S  S S  S S  S  S   S  S  S
|------------------------------------14--------|
|---10-10-10-10s8---10---10---13s14-----13s14--|
|-----------------9----------------------------|
|----------------------------------------------|
|----------------------------------------------|
|----------------------------------------------|
|
| E     S  S  S S E    E    S  S +E      S  S
|-------5--5--5-5--------------5-(5)-----5--5--|
|-------5--5--5-5--------------5-(5)-----5--5--|
|-------6--6--6-6--------------6-(6)-----6--6--|
|-------5--5--5-5--------------5-(5)-----5--5--|
|----------------------------------------------|
|-5--------------------5-----------------------|
|
| S  S  S  S  S S S  S S  S S  S  S   S  S  S
|------------------------------------12--------|
|---10-10-10-10-8---10---10---13s14-----13s14--|
|-----------------9----------------------------|
|----------------------------------------------|
|----------------------------------------------|
|----------------------------------------------|


  S  S  S  S  S S E     S   S   S  S  S S S S
|---------------------------------------------|
|---10-10-10-10s8-----------------------------|
|-----------------5s====6-------7-----5s6-----|
|--------------------------(7)----(7)-----7---|
|---------------------------------------------|
|---------------------------------------------|
|
| E     S  S +S E    S +S   E      S  S S E
|-------5--5-(5)5----5-(5)--5------5--5-5-5---|
|-------5--5-(5)5----5-(5)--5------5--5-5-5---|
|-------6--6-(6)6----6-(6)--6------6--6-6-6---|
|-------5--6-(6)5----5-(5)--5------5--5-5-5---|
|---------------------------------------------|
|-5-------------------------------------------|
|
| S  S  S  S  S S S  S  S   S   S  S  S S S S
|---------------------------------------------|
|---10-10-10-10s8---10------8-----------------|
|-----------------9------------\7s=5--7-5-----|
|-----------------------------------------7-7-|
|---------------------------------------------|
|---------------------------------------------|


  S  S  S  S  S S S  S S  S S  S  S  S  S  S
|-----------------------------------14--------|
|---10-10-10-10s8---10---10---13s14----13s14--|
|-----------------9---------------------------|
|---------------------------------------------|
|---------------------------------------------|
|---------------------------------------------|
|
| E     S  S  Q        S  E    S  Q
|----------5--5-----------5----x--5-----------|
|----------5--5-----------5----x--5-----------|
|----------6--6-----------6----x--6-----------|
|----------5--5-----------5----x--5-----------|
|---------------------------------------------|
|---------------------------------------------|
|
| S  S  S  S  S S S  S S  S S  S  S  S  S  S
|-----------------------------------12--------|
|---10-10-10-10s8---10---10---13s14----13s14--|
|-----------------9---------------------------|
|---------------------------------------------|
|---------------------------------------------|
|---------------------------------------------|


  S  S  S  S  S S S  S E     S  S  S S S S
|------------------------------------------|
|---10-10-10-10s8---10---------------------|
|-----------------9---------/6-(6)-7-5-6---|
|----------------------------------------7-|
|------------------------------------------|
|------------------------------------------|
|
| E     S  S  E   E    E     S  S  E   E
|-5--------5--5--------5--------5--5-------|
|-5--------5--5--------5--------5--5-------|
|-6--------6--6--------6--------6--6-------|
|-5--------5--5--------5--------5--5-------|
|------------------------------------------|
|------------------------------------------|
|
| S  S  S  S  S S S  S S  S  S  S  S S S S
|------------------------------------------|
|---10-10-10-10s8---10---\8----------------|
|-----------------9----------7s=5--7-5-----|
|--------------------------------------7-7-|
|------------------------------------------|
|------------------------------------------|


   S   S  S  S  S S  S  S S  S S  S  S  S  S  S
|--------------------------------------14--------|
|-----10-10-10-10-8----10---10---13s14----13s14--|
|-------------------11---------------------------|
|------------------------------------------------|
|-(7)--------------------------------------------|
|------------------------------------------------|
|
|  E      S  S  E    E    S  S E     E     E
|--5---------5--5---------5--5-5-----5-----------|
|--5---------5--5---------5--5-5-----5-----------|
|--6---------6--6---------6--6-6-----6-----------|
|--5---------5--5---------5--5-5-----5-----------|
|------------------------------------------------|
|------------------------------------------------|
|
|  S   S  S  S  S S  S  S S  S S  S  S  S  S  S
|--------------------------------------12--------|
|-----10-10-10-10-8----10---10---13s14----13s14--|
|--------------------9---------------------------|
|------------------------------------------------|
|------------------------------------------------|
|------------------------------------------------|


  S  S  S  S  S S S  S +S   S S S E    S S   S  S  S  S  S S S  S S  S S  S  S  S  S  S
|--------------------------------------7---|-----------------------------------14-------|
|---10-10-10-10s8--------------------------|---10-10-10-10s8---10---10---13s14----13s14-|
|-------------------/7-(7)----5------------|-----------------9--------------------------|
|------------------------------------------|--------------------------------------------|
|---------------------------7---7-7--------|--------------------------------------------|
|------------------------------------------|--------------------------------------------|
|
| E     S  S  E   E     S   S S S S E.       E     S  S  E   E    S  S S  S  E     E
|-5--------5--5-------------5---5---5------|-5--------5--5-----------5----5--5----------|
|-5--------5--5-------------5---5---5------|-5--------5--5-----------5----5--5----------|
|-6--------6--6-------------6---6---6------|-6--------6--6-----------6----6--6----------|
|-5--------5--5-------------5---5---5------|-5--------5--5-----------5----5--5----------|
|------------------------------------------|--------------------------------------------|
|------------------------------------------|--------------------------------------------|
|
| S  S  S  S  S S S  S  S   S S S S S  S S   S  S  S  S  S S S  S S  S S  S  S  S  S  S
|------------------------------------------|-----------------------------------12-------|
|---10-10-10-10s8---10-----\8--------------|---10-10-10-10s8---10---10---13s14----13s14-|
|-----------------9-----------7s5-7-5------|-----------------9--------------------------|
|--------------------------------------7-7-|--------------------------------------------|
|------------------------------------------|--------------------------------------------|
|------------------------------------------|--------------------------------------------|


  S  S  S  S  S S E     S   S S S S S S S
|--------------------------------------------*|
|---10-10-10-10s8----------------------------*|
|-----------------5s====6-----7---5s6--------*|
|---------------------------7---7-----7------*|
|--------------------------------------------*|
|--------------------------------------------*|
|
| E     S  S  E   S  S +S   E   S E   E
|-5--------5--5------5-(5)------5-5----------*|
|-5--------5--5------5-(5)------5-5----------*|
|-6--------6--6------6-(6)------6-6----------*|
|-5--------5--5------5-(5)------5-5----------*|
|--------------------------------------------*|
|--------------------------------------------*|
|
| S  S  S  S  S S S  S  S   S S S S S S S
|--------------------------------------------*|
|---10-10-10-10s8---10-----\8----------------*|
|-----------------9-----------7s5-7-5--------*|
|-------------------------------------7-7----*|
|--------------------------------------------*|
|--------------------------------------------*|


Duration Legend
---------------
W - whole; H - half; Q - quarter; E - 8th; S - 16th; T - 32nd; X - 64th; a - acciaccatura
+ - note tied to previous; . - note dotted; .. - note double dotted
Uncapitalized letters represent notes that are staccato (1/2 duration)
Irregular groupings are notated above the duration line
Duration letters will always appear directly above the note/fret number it represents the
duration for.  Duration letters with no fret number below them represent rests.  Multi-
bar rests are notated in the form Wxn, where n is the number of bars to rest for.  Low
melody durations appear below the staff

Tablature Legend
----------------
 h   - hammer-on
 p   - pull-off
 b   - bend
 pb  - pre-bend
 r   - bend release (if no number after the r, then release immediately)
 /\  - slide into or out of (from/to "nowhere")
 s   - legato slide
 S   - shift slide
  - natural harmonic
[n]  - artificial harmonic
n(n) - tapped harmonic
 ~   - vibrato
 tr  - trill
 T   - tap
 TP  - trem. picking
 PM  - palm muting
\n/  - tremolo bar dip; n = amount to dip
 \n  - tremolo bar down
 n/  - tremolo bar up
/n\  - tremolo bar inverted dip
 =   - hold bend; also acts as connecting device for hammers/pulls
 <>  - volume swell (louder/softer)
 x   - on rhythm slash represents muted slash
 o   - on rhythm slash represents single note slash

Misc Legend
-----------
 |  - bar
||  - double bar
||o - repeat start
o|| - repeat end
*|  - double bar (ending)
 :  - bar (freetime)
 $  - Segno
 &  - Coda
Tempo markers -  = BPM(8/16=s8/s16), where s8 = swing 8ths, s16 = swing 16ths

            
            
Suggest correction
Creating personal tab
Creating personal tab
You can edit any tab online and save it as your Personal.

You can edit, replace or remove any tab part or add personal notes – all changes will be seen only by you.

Personal tabs can be accessed anytime from any device, even offline.
Learn more »
Give kudos to tab author, rate the tab!
1 2 3 4 5
comments
print report bad tab
guest
You may want to rate the tab now too:
select rating
Wanna post a correction for this tab? Suggest correction