Oops, an error
Loading. Please wait.

You Vs Me tab

433 views 9 this week
no commentswrite comment
1 2 3 4 5
2 more votes to show rating
add to favorites
×
Save as Personal and add changes to this tab that will be seen only by you. Learn more ›
×
You can save this tab as Personal to edit and correct it or add notes. All changes will be seen only by you. Learn more »
launch autoscroll
font size
0
reset
how to read this tab
guitar tuner
edit
Autoscroll
slow
fast
+/-
esc
set tempo
stop
Author
You vs Me - Ephemera
Composed by: Little Green Cars
Arranged by: Alex M.
3/21/16

Standard Tuning
No Capo


I'm somewhat iffy on the transcriptions for some parts, especially during the bridge. If you have any
corrections to share, please share them :)

[Intro]
     E  E  S S S S E  E  S S S S    E  E  S S S S S S S S E  E     E  E  S S S S S S E  S S S S
e||------------------------------|--------------0---------------|------------------0------------|
B||-----3--------3----3--------3-|-----3----------------3-------|-----0--------3--------------0-|
G||*-----------------------------|------------------------------|----------0------------2p0-0---|
D||*----4----5p4------4----5p4---|-----4----5p4-----5p4---------|-----2------2-------2----------|
A||------------------------------|--0-----0-------0-------------|-------------------------------|
E||--3-----3-------3-----3-------|------------------------3--2--|--0-----0-------0------0-------|

  E  E  S S S S S S S S S S S S
--------------------------------|
-----0----0-------0---0-------0-|
--------------3---------2p0-0--*|
-----2------2-------2----------*|
--------------------------------|
--0-----0-------0-------0-------|


[Verse 1]

   E  E  S S S S E  E  S S S S    E  E  S S S S S S S S E  E     E  E  S S S S E  E  S S S S
|------------------------------|--------------0---------------|------------------------------|
|-----3--------3----3--------3-|-----3----------------3-------|-----0--------0----0--------0-|
|*-----------------------------|------------------------------|----------0-------------0-----|
|*----4----5p4------4----5p4---|-----4----5p4-----5p4---------|-----2------2------2------2---|
|------------------------------|--0-----0-------0-------------|------------------------------|
|--3-----3-------3-----3-------|------------------------3--2--|--0-----0-------0-----0-------|
1)             Alone inside my head,                   With a secret that's out of date
2)             You know it used to be                  The whole world versus you and me

  E  E  S S S S S S S S S S S S    E  E  S S S S S S S S S S E  
----------------------2---------|----------------------2--------|
-----0--------0-----------------|-----0--------0----------------|
----------0---------2-----2-----|----------0---------2-------2--|
-----2------2-----0---------0h2-|-----2------2-----0-------0----|
--------------------------------|-------------------------------|
--0-----0-------2-------2-------|--0-----0-------2-------2------|
            And a whipping tongue                That just can't wait
            But now it seems                 It's just you versus me

  E  E  S S S S E  E  S S S S    E  E  S S S S S S S S E  E     E  E  S S S S S S E  S S S S
------------------------------|--------------0---------------|------------------0------------|
-----3--------3----3--------3-|-----3----------------3-------|-----0--------3--------------0-|
------------------------------|------------------------------|----------0------------2p0-0---|
-----4----5p4------4----5p4---|-----4----5p4-----5p4---------|-----2------2-------2----------|
------------------------------|--0-----0-------0-------------|-------------------------------|
--3-----3-------3-----3-------|------------------------3--2--|--0-----0-------0------0-------|

1_______________________________ 2_____________________________
  E  E  S S S S S S S S S S S S    E  E  S S S S E  E  S S S S
--------------------------------|------------------------------|
-----0----0-------0---0-------0-|-----0--------0----0--------0-|
--------------3---------2p0-0--*|----------0-------------0-----|
-----2------2-------2----------*|-----2------2------2------2---|
--------------------------------|------------------------------|
--0-----0-------0-------0-------|--0-----0-------0-----0-------|

[Chorus]

   E.  E  S S S E.  E  S S S    E.  E  S S S E.  E  S S S    E  E  S S S S S S S S S S E
|--3---3--------2---2--------|--0---0------------0--------|--------------------------0----|
|---------0---0--------0---0-|---------0---0-3------3---3-|-----1--------1----------------|
|*----------0------------0---|-----------0------------0---|----------0-------0---2/4--\2--|
|*---------------------------|----------------------------|-----2------2-------2----------|
|----------------------------|----------------------------|--3-------------3--------------|
|--0------------0------------|--0------------0------------|--------3----------------------|
1) When         it              comes        down            to it
2) I just       was             not          ready           for it

1_____________________________ 2_____________________________
  E  E  S S S S S S S S E  E     E  E  S S S S E  E  S S E
------------------------------|-----------------------------|
-----1--------1-------1-------|-----1--------1----1---------|
----------0-------0----------*|----------0-------------0----|
-----2------2-------2--------*|-----2------2------2------2--|
--3-------------3-------2-----|--3-------------3------------|
--------3------------------3--|--------3-------------3------|

  E  E  S S S S E  E  S S S S    E  E  S S S S S S S S E  E     E  E  S S S S S S E  S S S S
------------------------------|--------------0---------------|------------------0------------|
-----3--------3----3--------3-|-----3----------------3-------|-----0--------3--------------0-|
------------------------------|------------------------------|----------0------------2p0-0---|
-----4----5p4------4----5p4---|-----4----5p4-----5p4---------|-----2------2-------2----------|
------------------------------|--0-----0-------0-------------|-------------------------------|
--3-----3-------3-----3-------|------------------------3--2--|--0-----0-------0------0-------|

  E  E  S S S S S S S S S S S S
--------------------------------|
-----0----0-------0---0-------0-|
--------------3---------2p0-0---|
-----2------2-------2-----------|
--------------------------------|
--0-----0-------0-------0-------|

[Verse 2]

   E  E  S S S S E  E  S S S S    E  E  S S S S S S S S E  E     E  E  S S S S E  E  S S S S
|------------------------------|--------------0---------------|------------------------------|
|-----3--------3----3--------3-|-----3----------------3-------|-----0--------0----0--------0-|
|*-----------------------------|------------------------------|----------0-------------0-----|
|*----4----5p4------4----5p4---|-----4----5p4-----5p4---------|-----2------2------2------2---|
|------------------------------|--0-----0-------0-------------|------------------------------|
|--3-----3-------3-----3-------|------------------------3--2--|--0-----0-------0-----0-------|
1)             Maybe all that's left                   Is a love that's more permanent than death
2)             And all I want to see                   Is the difference in between

  E  E  S S S S S S S S S S S S    E  E  S S S S S S S S S S E  
----------------------2---------|----------------------2--------|
-----0--------0-----------------|-----0--------0----------------|
----------0---------2-----2-----|----------0---------2-------2--|
-----2------2-----0---------0h2-|-----2------2-----0-------0----|
--------------------------------|-------------------------------|
--0-----0-------2-------2-------|--0-----0-------2-------2------|
            It's inevitable                It's as sure as a bird
            A love born out of grief       And sympathy

  E  E  S S S S E  E  S S S S    E  E  S S S S S S S S E  E     E  E  S S S S S S E  S S S S
------------------------------|--------------0---------------|------------------0------------|
-----3--------3----3--------3-|-----3----------------3-------|-----0--------3--------------0-|
------------------------------|------------------------------|----------0------------2p0-0---|
-----4----5p4------4----5p4---|-----4----5p4-----5p4---------|-----2------2-------2----------|
------------------------------|--0-----0-------0-------------|-------------------------------|
--3-----3-------3-----3-------|------------------------3--2--|--0-----0-------0------0-------|

1_______________________________ 2_____________________________
  E  E  S S S S S S S S S S S S    E  E  S S S S S S S S S S E
--------------------------------|-------------------------------|
-----0----0-------0---0-------0-|-----0----0-------0---0--------|
--------------3---------2p0-0--*|--------------3---------2p0-0--|
-----2------2-------2----------*|-----2------2-------2----------|
--------------------------------|-------------------------------|
--0-----0-------0-------0-------|--0-----0-------0-------0------|

[Chorus]

   E.  E  S S S E.  E  S S S    E.  E  S S S E.  E  S S S    E  E  S S S S S S S S S S E
|--3---3--------2---2--------|--0---0------------0--------|--------------------------0----|
|---------0---0--------0---0-|---------0---0-3------3---3-|-----1--------1----------------|
|*----------0------------0---|-----------0------------0---|----------0-------0---2/4--\2--|
|*---------------------------|----------------------------|-----2------2-------2----------|
|----------------------------|----------------------------|--3-------------3--------------|
|--0------------0------------|--0------------0------------|--------3----------------------|
1) When         it              comes        down            to it
2) I just       was             not          ready           for it

1_____________________________ 2___________________________
  E  E  S S S S S S S S E  E     E  E  S S S S E  E  E  E
------------------------------|----------------------------|
-----1--------1-------1-------|-----1--------1/3-----------|
----------0-------0----------*|----------0-----0-----------|
-----2------2-------2--------*|-----2------2---------------|
--3-------------3-------2-----|--3------------/5--5--3--2--|
--------3------------------3--|--------3-------------------|
                                             And you're not backing down

   E  E  S S S S E  E  S S S S    E  E  S S S S E  E  E  E     E  E  S S S S S S E  S S S S
|------------------------------|----------------------------|------------------0------------|
|-----3-------3-----3--------2-|-----2--------2-------------|-----0--------3--------------0-|
|*----2----2--------2----2-----|-----2----2-----------------|----------0------------2p0-0---|
|*-----------2-------------2---|------------2---------------|-----2------2-------2----------|
|--0-----0-------0-----0-------|--0-----0------/5--5--3--2--|-------------------------------|
|------------------------------|----------------------------|--0-----0-------0------0-------|
                                             And I won't come around

1___________________________ 2_____________________________
  E  E  S S S S E  E  E  E     E  E  S S S S E  E  S S S S
----------------------------|------------------------------|
-----0--------0/3-----------|-----0--------0----0--------0-|
----------0-----0-----------|----------0-------------0-----|
-----2------2---------------|-----2------2------2------2---|
---------------/5--5--3--2--|------------------------------|
--0-----0-------------------|--0-----0-------0-----0-------|
              And you're not backing down

[Bridge]

   E  E  S S S S E  E  S S S S    S S S S S S S S S S S S S S S S    E  E  S S S S S S S S S S S S
|------------------------------|--------2-------2-------3---------|----------------------3---------|
|-----0--------0----0--------0-|--------------------------------0-|-----1--------1---1-----------1-|
|*---------0-------------0-----|----2-------2-------0-------0-----|----------0---------------0-----|
|*----2------2------2------2---|------0-------0-------0-------0---|-----2------0-------2-----------|
|------------------------------|----------0---------------2-------|--3-----2-------0-------0-------|
|--0-----0-------0-----0-------|--2---------------3---------------|----------------------------3---|
1)    If this is you just trying to hurt yourself              Well I won't help,            
2)    And if you think I'm going to self-destruct              Well I'll give it up          

1____________________________________________________________________________
  E  E  S S S S    E  E  S S S S S S E  S S S S    E  E  S S S S E  E  S S S S
----------------|------------------0------------|------------------------------|
-----1--------1-|-----0--------3--------------0-|-----0--------0----0--------0-|
----------0-----|----------0------------2p0-0---|----------0-------------0----*|
-----2------0---|-----2------2-------2----------|-----2------2------2------2--*|
--3-----2-------|-------------------------------|------------------------------|
----------------|--0-----0-------0------0-------|--0-----0-------0-----0-------|
no I won't help

2_________________________
  E  E  S S S S S S S S S S S S    E  E  S S S S E  E     E  E  S S S S S S E  S S S S
----------------------3---------|----------------------|------------------0------------|
-----1--------1---1-----------1-|-----1--------1-------|-----0--------3--------------0-|
----------0---------------0-----|----------0--------0--|----------0------------2p0-0---|
-----2------0-------2-----------|-----2------0---0-----|-----2------2-------2----------|
--3-----2-------0-------0-------|--3-----2-------------|-------------------------------|
----------------------------3---|----------------------|--0-----0-------0------0-------|
or I'll give you up         So I'll give it up

  E  E  S S S S S S S S S S E
-------------------------------|
-----0----0-------0---0--------|
--------------3---------2p0-0--|
-----2------2-------2----------|
-------------------------------|
--0-----0-------0-------0------|

   E.  E  S S S E.  E  S S S    E.  E  S S S E.  E  S S S 
|--3---3--------2---2--------|--0---0------------0--------|
|---------0---0--------0---0-|---------0---0-3------3---3-|
|*----------0------------0---|-----------0------------0---|
|*---------------------------|----------------------------|
|----------------------------|----------------------------|
|--0------------0------------|--0------------0------------|

1_____________________________________________________________ 2__________________
  E  E  S S S S S S S S S S E     E  E  S S S S S S S S E  E     W
--------------------------0----|------------------------------|--0----------------||
-----1--------1----------------|-----1--------1-------1-------|--1----------------||
----------0-------0---2/4--\2--|----------0-------0----------*|--0----------------||
-----2------2-------2----------|-----2------2-------2--------*|--2----------------||
--3-------------3--------------|--3-------------3-------2-----|--3----------------||
--------3----------------------|--------3------------------3--|-------------------||





************************************

| h   Hammer-on
| p   Pull-off
| /   Slide up
| \   Slide down

Duration Legend:
| S   Sixteenth note
| E   Eight note
| E.  Dotted Eighth note
| W   Whole note

************************************

            
            
Suggest correction
Creating personal tab
Creating personal tab
You can edit any tab online and save it as your Personal.

You can edit, replace or remove any tab part or add personal notes – all changes will be seen only by you.

Personal tabs can be accessed anytime from any device, even offline.
Learn more »
Give kudos to tab author, rate the tab!
1 2 3 4 5
comments
print report bad tab
guest
You may want to rate the tab now too:
select rating
Wanna post a correction for this tab? Suggest correction