Oops, an error
Loading. Please wait.

Grand Canyon chords

118 views 1 this week
no commentswrite comment
1 2 3 4 5
3 more votes to show rating
add to favorites
×
Save as Personal and add changes to this tab that will be seen only by you. Learn more ›
×
You can save this tab as Personal to edit and correct it or add notes. All changes will be seen only by you. Learn more »
launch autoscroll
font size
0
reset
transpose
0
reset
simplify chords
display chords
guitar tuner
edit
Autoscroll
slow
fast
+/-
esc
set tempo
stop
Strumming
There is no strumming pattern for this song yet. and get +5 IQ
Em/G: 322000

[Various Riffs]
       Em
d#|---------------------|-----------------------|
A#|---------------------|-----------------------|
F#|---------------------|-----------------------|
C#|-------2-0-2---------|------2-0-2------------|
G#|-----2-------2-------|----2-------2----------|
D#|---0-----------3-0---|--0-----------3-0------|

      Em
d#|---------------------|-----------------------|
A#|---------------------|-----------------------|
F#|---------------------|-----------------------|
C#|-------2-0-2---------|------2-0-2------------|
G#|-----2-------2-------|----2-------2----------|
D#|---0-----------3-0---|--0-----------3--------|
       
      Am
d#|---------------------|-----------------------|
A#|---------------------|-----------------------|
F#|-------2-0-2---------|------2-0-2------------|
C#|-----2-------2-------|----2-------2----------|
G#|---0-----------3-0---|--0-----------3--------|
D#|---------------------|-----------------------|

      Em
d#|---------------------|-----------------------|
A#|---------------------|-----------------------|
F#|---------------------|-----------------------|
C#|-------2-0-2---------|------2-0-2------------|
G#|-----2-------2-------|----2-------2----------|
D#|---0-----------3-0---|--0-----------3--------|

      Bm               Am               Em
d#|-----------|-----------|-----------------------|
A#|-----------|-----------|-----------------------|
F#|-------4---|-------2---|-----------------------|
C#|-----4-----|-----2-----|------2-0-2------------|
G#|---2-------|---0-------|----2-------2----------|
D#|-----------|-----------|--0-----------3-0------|

[Intro]
Em   Em/G (x4)

[Verse 1]
Em
Sunday I walked to church
Em
I bowed my head
Em
I wasn't praying, 
Em
but I should be, instead I was
Am
Reading that book of psalms and the
Am
Words it said
Em
I looked up, that preacher man was
Em
Looking my way
Bm               
You know I walk in this 
Am
church just for you
Em
Yeah you


Em   Em/G (x4)


[Verse 2]
Em
Tuesday you were impressed by the 
Em
devil in the news
Em
His suit stripes red, and the 
Em
stars on blue, he was
Am
Jumping that bike across the 
Am
River Grande
Em
Broke every record we got 
Em
in this land, you know I'd
Bm               
Jump the Grand 
Am
Canyon for you
Em          Em/G 
Yeah you      It's true


[Instrumental]
Em   Em/G (x2)

Am (x2)

Em   Em/G (x2)

Bm Am Em

Em   Em/G (x4)



[Verse 3]
Em
We spend the day across the 
Em
border to the South
Em
Some hombre grabbed your arm, starts 
Em
running his mouth
          Am
You know I had no pesos
           Am
Nothing to trade for your life
   Em
I looked up that crazy man was 
Em
holding a knife, you know I
Bm               
Might die in 
Am
Mexico for you 
Em          Em/G
Yeah you        It's true


Em   Em/G (x2)

Am (x2)

Em   Em/G (x2)

Bm Am Em
      
Em   Em/G (X11)


[Verse 4]
Em
All my money, it
Em
Goes on down the drain
Em
All my problems are
Em
Driving me insane
Am
You can't tell me how
Am
How to live my life
Em
I could hold you close
Em
Every day and night
Bm               
All I
Am
Really need is you
Em   Em/G        Em
                Yeah you 
Suggest correction
Creating personal tab
Creating personal tab
You can edit any tab online and save it as your Personal.

You can edit, replace or remove any tab part or add personal notes – all changes will be seen only by you.

Personal tabs can be accessed anytime from any device, even offline.
Learn more »
Give kudos to tab author, rate the tab!
1 2 3 4 5
comments
print report bad tab
guest
You may want to rate the tab now too:
select rating
Wanna post a correction for this tab? Suggest correction