Oops, an error
Loading. Please wait.

Sexy In Latin bass

version 1
version 1

Whole song

Interactive

1,168 views 1 this week
3 commentsread comments
1 2 3 4 5
1 last vote to show rating
add to favorites
×
Save as Personal and add changes to this tab that will be seen only by you. Learn more ›
×
You can save this tab as Personal to edit and correct it or add notes. All changes will be seen only by you. Learn more »
launch autoscroll
font size
0
reset
guitar tuner
edit
Autoscroll
slow
fast
+/-
esc
set tempo
stop
Difficulty
This is my 1st tab and think the song fitting to break my tabbing virginity plz rate its cool

Sexy in Latin


Bass Guitar Intro

G|----------------------------------------------------------|
D|------3333------3333------3333------3333------3333--------|
A|333333----333333----333333----333333----333333----33333-3-|
E|----------------------------------------------------------|

Verse - Our mums got talking.....

G|----------------------------------------|
D|----------------------------------------|
A|3333333377777777888888881010101010101010        x2
E|----------------------------------------


Pre chorus
G|-----------------------------------------|
D|-----------------------------------------|
A|3-3-33----7-7-77--5--3-3-33-3-333333-----|
E|-----------------------------------------|


chorus
G|------------------------------------------------------|
D|---22-3333-5555---------------------------------------|                 x2
A|33----------------------------------------------------|
E|------------------------------------------------------|

Guitar solo 1
G|------------------------------------------------------|
D|---22-33-5555-----------------------------------------|                x2
A|33----------------------------------------------------|
E|------------------------------------------------------|

INTERLUDE


Verse -
G|----------------------------------------|
D|----------------------------------------|
A|3333333377777777888888881010101010101010        x2
E|----------------------------------------


Pre chorus
G|-----------------------------------------|
D|-----------------------------------------|
A|3-3-33----7-7-77--5--3-3-33-3-333333-----|
E|-----------------------------------------|


chorus
G|------------------------------------------------------|
D|---22-3333-5555---------------------------------------|                 x2
A|33----------------------------------------------------|
E|------------------------------------------------------|
Guitar solo 2
G|---------------------------------------------------|
D|-----22-2-33-3-5555--------------------------------|              x2
A|33-3-----------------------------------------------|
E|---------------------------------------------------|


interlude
G|-----------------------------------------|
D|-----------3--------3------3-------------|
A|3-------------------------------------3--|
E|-----------------------------------------|


Verse -
G|----------------------------------------|
D|----------------------------------------|
A|3333333377777777888888881010101010101010
E|----------------------------------------


G|-----------------------------------------|
D|-----------------------------------------|
A|1010101010101010-------------------------|
E|-----------------------------------------|

Guitar solo 3
G|------------------------------------------------------|
D|---22-3333-5555---------------------------------------|                 x2
A|33----------------------------------------------------|
E|------------------------------------------------------|


G|-----------------------------------------|
D|-----------------------------------------|
A|3-33333----------------------------------|
E|-----------3-3-1-1-----------------------|

chorus
G|-----------------------------------------------------|
D|---2-3333-5555---------------------------------------|                 x2
A|3----------------------------------------------------|
E|-----------------------------------------------------|


outro
G|-----------------------------------------------------|
D|-----2222-3333-5555----------------------------------|                 x4
A|3333-------------------------------------------------|
E|-----------------------------------------------------|
Suggest correction
Creating personal tab
Creating personal tab
You can edit any tab online and save it as your Personal.

You can edit, replace or remove any tab part or add personal notes – all changes will be seen only by you.

Personal tabs can be accessed anytime from any device, even offline.
Learn more »
Give kudos to tab author, rate the tab!
1 2 3 4 5
comments
print report bad tab
3 comments total.
0 reply
2thursw 30 Apr 03, 2008 11:59 PM

good tab apart from mistake in the interlude. should be
G:
D: 2 3 5
A: 3 6
E:

but otherwise all good!

0 reply
2thursw 30 Apr 04, 2008 12:00 AM

A:3
D:2
D:3
D:5
A:6

0 reply
2thursw 30 Apr 04, 2008 01:08 AM

also guitar solo 2: should be 33 3 22 2 33 3 (thats what you have which is right but) the 6655 not 5555

guest
Wanna post a correction for this tab? Suggest correction