Oops, an error
Loading. Please wait.

This Girl Isnt My Girlfriend tab

version 1
version 1

Whole song

708 views 1 this week
1 commentread comment
1 2 3 4 5
2 more votes to show rating
add to favorites
×
Save as Personal and add changes to this tab that will be seen only by you. Learn more ›
×
You can save this tab as Personal to edit and correct it or add notes. All changes will be seen only by you. Learn more »
launch autoscroll
font size
0
reset
how to read this tab
guitar tuner
edit
Autoscroll
slow
fast
+/-
esc
set tempo
stop
Author
Little man tate - this girl isnt my girlfriend

I tabbed it in bar chords as I think it sounds more like the song this way, but it can
be played with open chords it just might sound as great

Standard tuning


intro

Guitar 2
E|--------------------------------------------------------|
B|--------------------------------------------------------|
G|-0-0-7-7--------------------0-0-7-7---------------------|play
D|---------8-9-----8-8----------------8-9-----8-----------|this
A|-------------8-8-----8-9----------------8-8---8---------|3x
E|--------------------------------------------------------|

After the first time playing the above intro, guitar 1 comes in with:

E|-3--3--1--1---|
B|-3--3--1--1---|
G|-4--4--2--2---|
D|-5--5--3--3---|  x4
A|-5--5--3--3---|
E|-3--3--1--1---|

Guitar 2                                   guitar 1
E|----------------                    E|-3-3----3-3-3-3-3-------|
B|----------------                    B|-3-3----5-5-5-5-5-------|
G|---7-9----------  while guitar 1    G|-4-4----5-5-5-5-5-------|
D|-9-----8-5------      plays:        D|-5-5----5-5-5-5-5-------|   x3
A|-----------8----                    A|-5-5----3-3-3-3-3-------|
E|----------------                    E|-3-3----3-3-3-3-3-------|

Guitar 2                                    guitar 1
E|------------------|                  E|-5555555-5555555------|
B|------------------|                  B|-5555555-7777777------|
G|--7777777-0000000-| while guitar 1   G|-6666666-7777777------|
D|------------------|   plays:         D|-7777777-7777777------|
A|------------------|                  A|-7777777-5555555------|
E|------------------|                  E|-5555555-5555555------|


From now on Ive only got guitar 1 tabbed because guitar 2 is complicated and difficult 
hear that well on the track but Im working on it :)

Verse 1

Well today I feel like
E|-3-3-3-3-3-3-3-3--8--8--8--8--8--8--8--8---5-5-5-5--5-5-5-5----|
B|-3-3-3-3-3-3-3-3--8--8--8--8--8--8--8--8---5-5-5-5--7-7-7-7----|
G|-4-4-4-4-4-4-4-4--9--9--9--9--9--9--9--9---6-6-6-6--7-7-7-7----|
D|-5-5-5-5-5-5-5-5--10-10-10-10-10-10-10-10--7-7-7-7--7-7-7-7----|
A|-5-5-5-5-5-5-5-5--10-10-10-10-10-10-10-10--7-7-7-7--5-5-5-5----|
E|-3-3-3-3-3-3-3-3--8--8--8--8--8--8--8--8---5-5-5-5--5-5-5-5----|

E|------------------3---|
B|------------------3---|
G|-then fill with:--4---|
D|------------------5---|
A|------------------5---|
E|------------------3---|


Verse 2

Well I noticed her
E|-3-3-3-3-3-3-3-3--8--8--8--8--8--8--8--8-----5----5-----|
B|-3-3-3-3-3-3-3-3--8--8--8--8--8--8--8--8-----5----7-----|
G|-4-4-4-4-4-4-4-4--9--9--9--9--9--9--9--9-----6----7-----|
D|-5-5-5-5-5-5-5-5--10-10-10-10-10-10-10-10----7----7-----|
A|-5-5-5-5-5-5-5-5--10-10-10-10-10-10-10-10----7----5-----|
E|-3-3-3-3-3-3-3-3--8--8--8--8--8--8--8--8-----5----5-----|

E|------------------3---|
B|------------------3---|
G|-then fill with:--4---|
D|------------------5---|
A|------------------5---|
E|------------------3---|


Pre-chorus

Q said its true
E|-3-3-3-3--3-3-3-3-3--3------3-3-3-3--3-3-3-3--3-3-3-3-|
B|-5-5-5-5--3-3-3-3-3--5------3-3-3-3--5-5-5-5--3-3-3-3-|
G|-5-5-5-5--4-4-4-4-4--5------4-4-4-4--5-5-5-5--4-4-4-4-|
D|-5-5-5-5--5-5-5-5-5--5------5-5-5-5--5-5-5-5--5-5-5-5-|
A|-3-3-3-3--5-5-5-5-5--3------5-5-5-5--3-3-3-3--5-5-5-5-|
E|-3-3-3-3--3-3-3-3-3--3------3-3-3-3--3-3-3-3--3-3-3-3-|

But practice
E|-5-5-5-5-5-5-5-5--------------|
B|-7-7-7-7-7-7-7-7--------------|
G|-7-7-7-7-7-7-7-7--------------|
D|-7-7-7-7-7-7-7-7--------------|
A|-5-5-5-5-5-5-5-5--------------|
E|-5-5-5-5-5-5-5-5--------------|

Chorus
Here the line: this girl isnt my girlfriend is played 3 times. For the first two play
top tab and for the last, play the bottom one

This girl
E|-3-3----3-3-3-3-3---|
B|-3-3----5-5-5-5-5---|
G|-4-4----5-5-5-5-5---|   x2
D|-5-5----5-5-5-5-5---|
A|-5-5----3-3-3-3-3---|
E|-3-3----3-3-3-3-3---|

E|-3-3----5-5-5-5-5---3--------------------------|
B|-3-3----7-7-7-7-7---3--------------------------|
G|-4-4----7-7-7-7-7---4----leads into verse 2----|
D|-5-5----7-7-7-7-7---5--------------------------|
A|-5-5----5-5-5-5-5---5--------------------------|
E|-3-3----5-5-5-5-5---3--------------------------|

Verse 2

The things she wanted
E|-3-3-3-3-3-3-3-3--8--8--8--8--8--8--8--8---5-5-5-5--5-5-5-5----|
B|-3-3-3-3-3-3-3-3--8--8--8--8--8--8--8--8---5-5-5-5--7-7-7-7----|
G|-4-4-4-4-4-4-4-4--9--9--9--9--9--9--9--9---6-6-6-6--7-7-7-7----|
D|-5-5-5-5-5-5-5-5--10-10-10-10-10-10-10-10--7-7-7-7--7-7-7-7----|
A|-5-5-5-5-5-5-5-5--10-10-10-10-10-10-10-10--7-7-7-7--5-5-5-5----|
E|-3-3-3-3-3-3-3-3--8--8--8--8--8--8--8--8---5-5-5-5--5-5-5-5----|

E|------------------3---|
B|------------------3---|
G|-then fill with:--4---|
D|------------------5---|
A|------------------5---|
E|------------------3---|

When we woke up the
E|-3-3-3-3-3-3-3-3--8--8--8--8--8--8--8--8---5-5-5-5--5-5-5-5----|
B|-3-3-3-3-3-3-3-3--8--8--8--8--8--8--8--8---5-5-5-5--7-7-7-7----|
G|-4-4-4-4-4-4-4-4--9--9--9--9--9--9--9--9---6-6-6-6--7-7-7-7----|
D|-5-5-5-5-5-5-5-5--10-10-10-10-10-10-10-10--7-7-7-7--7-7-7-7----|
A|-5-5-5-5-5-5-5-5--10-10-10-10-10-10-10-10--7-7-7-7--5-5-5-5----|
E|-3-3-3-3-3-3-3-3--8--8--8--8--8--8--8--8---5-5-5-5--5-5-5-5----|

E|------------------3---|
B|------------------3---|
G|-then fill with:--4---|
D|------------------5---|
A|------------------5---|
E|------------------3---|

Pre-chorus 2
Same as before

Chorus 2
Same as before except played twice

Bridge
guitar 1 plays this during the guitar 2 solo

E|-3--3--3--3---8---8---8---8--------|
B|-3--3--3--3---8---8---8---8--------|
G|-4--4--4--4---9---9---9---9--------|
D|-5--5--5--5---10--10--10--10-------|    x3
A|-5--5--5--5---10--10--10--10-------|
E|-3--3--3--3---8---8---8---8--------|

E|-3--3--3--3---5555555555566666666666-|
B|-3--3--3--3---5555555555566666666666-|
G|-4--4--4--4---6666666666677777777777-|
D|-5--5--5--5---7777777777788878788888-|
A|-5--5--5--5---7777777777788888888888-|
E|-3--3--3--3---5555555555566666666666-|

Chorus 3
Played like chorus 2

End on:
E|-3-----|
B|-3-----|
G|-4-----|
D|-5-----|
A|-5-----|
E|-3-----|

            
            
Suggest correction
Creating personal tab
Creating personal tab
You can edit any tab online and save it as your Personal.

You can edit, replace or remove any tab part or add personal notes – all changes will be seen only by you.

Personal tabs can be accessed anytime from any device, even offline.
Learn more »
Give kudos to tab author, rate the tab!
1 2 3 4 5
comments
print report bad tab
1 comment total.
0 reply
rangey92 41 Feb 09, 2008 06:29 AM

this is great! cheers

guest
You may want to rate the tab now too:
select rating
Wanna post a correction for this tab? Suggest correction