Oops, an error
Loading. Please wait.

This Must Be Love tab

1,903 views 1 this week
5 commentsread comments
1 2 3 4 5
x 5
add to favorites
×
Save as Personal and add changes to this tab that will be seen only by you. Learn more ›
×
You can save this tab as Personal to edit and correct it or add notes. All changes will be seen only by you. Learn more »
launch autoscroll
font size
0
reset
how to read this tab
guitar tuner
edit
Autoscroll
slow
fast
+/-
esc
set tempo
stop
just worked this out cos i couldnt find it anywhere not sure about the whole of the 
bit but it sounds pretty right any one who can help please correct me

enjoy ;)

E---------------------------------------------------3-------------|
B---------------------------------------3-5-3--4/5----5-3---------|
G-------------------------------------5-------------------5-------|
D-----5-2---0----5-2---0----5-2---0-------------------------------|
A-------------0---------------------------------------------------|
E--3----------------------3---------------------------------------|


chords for the verse:

 G   Bm   Am   D

-3---2----0----2---|
-3---3----1----3---|
-0---4----2----2---|
-0---4----2----0---|
-2---0----0--------|
-3-----------------|

            
            
Suggest correction
Creating personal tab
Creating personal tab
You can edit any tab online and save it as your Personal.

You can edit, replace or remove any tab part or add personal notes – all changes will be seen only by you.

Personal tabs can be accessed anytime from any device, even offline.
Learn more »
comments
print report bad tab
5 comments total. Showing first comments.
0 reply
punk999 104 Apr 15, 2007 01:09 AM

you've gotta do the whole thing

0 reply
Conormck 41 Jun 11, 2007 01:43 PM

Its the same chords for the verse

On the bit where it goes "But dont get me wrong you wernt the first girl that i ever kissed with tongues"

Its [x79900] and D

And then on the bit where it goes
"But you where the best you let me touch your chest"
Its just C and D

0 reply
takewatzmine 10 Jul 06, 2007 06:24 AM

could you post the whole thing. its confusing when you just explain it. thanks

guest
You may want to rate the tab now too:
select rating
Wanna post a correction for this tab? Suggest correction