Oops, an error
Loading. Please wait.

What What You Got bass

version 1
version 1

Whole song

Interactive

771 views 6 this week
1 commentread comment
1 2 3 4 5
1 last vote to show rating
add to favorites
×
Save as Personal and add changes to this tab that will be seen only by you. Learn more ›
×
You can save this tab as Personal to edit and correct it or add notes. All changes will be seen only by you. Learn more »
launch autoscroll
font size
0
reset
guitar tuner
edit
Autoscroll
slow
fast
+/-
esc
set tempo
stop
Difficulty
intermediate
Tabbed by Tim Rae and Rich Edwards~


It should be in order, just play each part....

intro:
g|-------------------------------------------------------------------|
d|---------5---5-----------------------------------------------------|
a| 7767 767 767 75 3323 3235323532---------------5575 5 5 555566-----|
e|---------------------------------3323 33333232---------------------|

g|--------------------------------------------------------------------|
d|---------5---5------------------------------------------------------|
a|-7767-767-767-75-3323-3235323532---------------5555555555555566-----|
e|---------------------------------3323 33333232----------------------|

first verse
g|-------------------------------------------------------------------|
d|-------------5-----------------------------------------------------|
a|-7767~767~767-75-3323-3235323532-----------------5545-545-5456-----|
e|---------------------------------3323-323-323232-------------------|


verse
g|-------------------------------------------------------------------|
d|---------5---5-----------------------------------------------------|
a|-7767-767-767-75-3323-3235323532---------------555555555555566-----|
e|---------------------------------3333333333333---------------------|

g|-------------------------------------------------------------------|
d|---------5---5-----------------------------------------------------|
a|-7767-767-767-75-3323-3235323532---------------555555555555555-----|
e|---------------------------------3333333333232---------------------|

chorus
g|-------------------------------------------------------|
d|-------------------------------------------------------|
a|-3-2-----5555555555555555-3-2-----5555555555555555-----|
e|-----5-3----------------------5-3----------------------|


g|-------------------------------------|
d|-------------------5-----------------|
a|--------5-4545-7767 76 3323-532------|
e|-3-2323------------------------------|

g|-------------------------------------|
d|-------------------5-----------------|
a|--------5-4545-7767-76-3-------------|
e|-3-2323------------------------------|

verse
g|-------------------------------------------------------------------|
d|---------5---5-----------------------------------------------------|
a|-7767-767-767-75-3323-3235323532---------------555555555555566-----|
e|---------------------------------3333333333333---------------------|

g|-------------------------------------------------------------------|
d|---------5---5-----------------------------------------------------|
a|-7767-767-767-75-3323-3235323532---------------555555555555566-----|
e|---------------------------------3333333333333---------------------|

g|-------------------------------------------------------------------|
d|---------5---5-----------------------------------------------------|
a|-7767-767-767-75-3323-3235323532---------------555555555555555-----|
e|---------------------------------3333333333333---------------------|

chorus
g|-------------------------------------------------------|
d|-------------------------------------------------------|
a|-3-2-----5555555555555555-3-2-----5555555555555555-----|
e|-----5-3----------------------5-3----------------------|

bridge
g|-------------------------------------|
d|-------------------5-----------------|
a|--------5-4545-7767-76 3323-532------|
e|-3-2323------------------------------|

g|-------------------------------------|
d|-------------------5-----------------|
a|--------5-4545-7767-76 3323-532------|
e|-3-2323------------------------------|

g|-------------------------------------|
d|--------------------5----------------|
a|--------5555566-7767-76-3------------|
e|-3-2323------------------------------|

outro
g|------------------------------------------------------------------------|
d|-------------5----------------------------------------------------------|
a| 7767~767~767-75 3323 323-323532-----------------5-5-5-5-5-5-5-5--------|
e|-------------------------------- 3-323-3-3-3-3-3------------------------|

g|-----------------------------------------------------------------------|
d|-----------------------------------------------------------------------|
a| 7-7-6-7-7-7-7-7-3323 323-323532-----------------555555555555555-------|
e|-------------------------------- 3-323-3-3-3-3-3-----------------------|

g|------------------------------------------------------------------------|
d|------------------------------------------------------------------------|
a|-3-2-----5~------43-2-----55555555555555555555555555555555--------------|
e|-----5-3-------------5-3-----------------------------------3~-----------|

Tabbed by Tim Rae and Rich Edwards~

            
            
Suggest correction
Creating personal tab
Creating personal tab
You can edit any tab online and save it as your Personal.

You can edit, replace or remove any tab part or add personal notes – all changes will be seen only by you.

Personal tabs can be accessed anytime from any device, even offline.
Learn more »
Give kudos to tab author, rate the tab!
1 2 3 4 5
comments
print report bad tab
1 comment total.
0 reply
Sheephead 32 Sep 30, 2007 11:44 AM

Great tab lads :-D

guest
Wanna post a correction for this tab? Suggest correction