Oops, an error
Loading. Please wait.
We have Chord Pro version of Black Magic.
It's the closest thing you can get to the original song and it has interactive parts. Check out the tab »
×
109 views 18 this week
no commentswrite comment
1 2 3 4 5
3 more votes to show rating
add to favorites
×
Save as Personal and add changes to this tab that will be seen only by you. Learn more ›
×
You can save this tab as Personal to edit and correct it or add notes. All changes will be seen only by you. Learn more »
launch autoscroll
font size
0
reset
how to read this tab
guitar tuner
edit
Autoscroll
slow
fast
+/-
esc
set tempo
stop
[Intro]
e|-0----0----0---0---0---0-----0---0---0--0----------------------------------|
B|--------------------------------------------0------------------------------|
G|---------------------------------------------------------------------------|
D|---------------------------------------------------------------------------|
A|---------------------------------------------------------------------------|
E|---------------------------------------------------------------------------|

   All the girls on the block knocking at my door

e|-0-0---0----0---0---0--0----0---0---0--------------------------------------|
B|------------------------------------------0--------------------------------|
G|---------------------------------------------------------------------------|
D|---------------------------------------------------------------------------|
A|---------------------------------------------------------------------------|
E|---------------------------------------------------------------------------|

  Wanna know what it is make the boys want more

[Verse]
e|-2---2---2--4--2---2---2---4----------2---2----2----4---2--2---2-----4-----|
B|---------------------------------0---------------------------------------0-|
G|---------------------------------------------------------------------------|
D|---------------------------------------------------------------------------|
A|---------------------------------------------------------------------------|
E|---------------------------------------------------------------------------|

   Is your lover playing on your side? Said he loves you But he ain't got time

e|-2------2--2---0---2----2--2---0--0--0----0--------------------------------|
B|---------------------------------------------------------------------------|
G|------------------------------------------------2-----1--------------------|
D|---------------------------------------------------------------------------|
A|---------------------------------------------------------------------------|
E|---------------------------------------------------------------------------|

  Here's the answer Come and get it At a knocked down price

e|--2---2--2--4---2---2---2---4---------2---2---2---4----2---2---2----4------|
B|---------------------------------0--------------------------------------0--|
G|---------------------------------------------------------------------------|
D|---------------------------------------------------------------------------|
A|---------------------------------------------------------------------------|
E|---------------------------------------------------------------------------|

   Full of honey Just to make him sweet Crystal balling Just to help him see

e|-2----2----2----2---0--2---2---2---2---0----0-----0-----0------------------|
B|---------------------------------------------------------------------------|
G|--------------------------------------------------------------2----1-------|
D|---------------------------------------------------------------------------|
A|---------------------------------------------------------------------------|
E|---------------------------------------------------------------------------|

  What he's been missing So come and get it While you've still got time

[Pre-Chorus]

  Get your boy on his knees
  And repeat after me, say

[Chorus]
e|-5---5--5--5--5---5------0--2---5-----5------------0--2--------------------|
B|---------------------3--------------------3---3----------------------------|
G|---------------------------------------------------------------------------|
D|---------------------------------------------------------------------------|
A|---------------------------------------------------------------------------|
E|---------------------------------------------------------------------------|

  Take a sip of my secret potion I'll make you fall in love

e|-5--5---5----5----5-------0---2---5----5------------0--2-------------------|
B|-----------------------3--------------------3----3-------------------------|
G|---------------------------------------------------------------------------|
D|---------------------------------------------------------------------------|
A|---------------------------------------------------------------------------|
E|---------------------------------------------------------------------------|

  For a spell that can't be broken One drop should be enough

e|--5----2---7--5--2--0--5--2---7---5-2-0------0-----2-----------------------|
B|-----------------------------------------3----------------3---0------------|
G|-----------------------------------------------------------------2---------|
D|---------------------------------------------------------------------------|
A|---------------------------------------------------------------------------|
E|---------------------------------------------------------------------------|

   Boy, you belong to me I got the recipe And it's called black magic
   
   (And it's called black magic)

e|-5---5--5--5--5---5------0--2---5-----5--------------0--2------------------|
B|---------------------3--------------------3---3----------------------------|
G|---------------------------------------------------------------------------|
D|---------------------------------------------------------------------------|
A|---------------------------------------------------------------------------|
E|---------------------------------------------------------------------------|

  Take a sip of my secret potion One taste and you'll be mine

e|-5---5--5-----5----5-------0---2---5----5------------0----2----------------|
B|------------------------3--------------------3---3-------------------------|
G|---------------------------------------------------------------------------|
D|---------------------------------------------------------------------------|
A|---------------------------------------------------------------------------|
E|---------------------------------------------------------------------------|

  It's a spell that can't be broken It'll keep you up all night

e|--5----2---7--5--2--0--5--2---7---5-2-0------0-----2-----------------------|
B|-----------------------------------------3----------------3---0------------|
G|-----------------------------------------------------------------2---------|
D|---------------------------------------------------------------------------|
A|---------------------------------------------------------------------------|
E|---------------------------------------------------------------------------|

   Boy, you belong to me I got the recipe And it's called black magic
   
   (And it's called black magic)

[Verse]
[Chorus]
[Intro x2]
[Chorus]

[Outro]

e|--4---4--2---4-------------------------------------------------------------|
B|---------------------------------------------------------------------------|
G|---------------------------------------------------------------------------|      x8
D|---------------------------------------------------------------------------|
A|---------------------------------------------------------------------------|
E|---------------------------------------------------------------------------|

   Falling in love (hey) 
Suggest correction
Creating personal tab
Creating personal tab
You can edit any tab online and save it as your Personal.

You can edit, replace or remove any tab part or add personal notes – all changes will be seen only by you.

Personal tabs can be accessed anytime from any device, even offline.
Learn more »
Give kudos to tab author, rate the tab!
1 2 3 4 5
comments
print report bad tab
guest
You may want to rate the tab now too:
select rating
Wanna post a correction for this tab? Suggest correction