Oops, an error
Loading. Please wait.

Secret Love Song solo tab

version 3
version 3

Whole song

  • This version is easy to learn and has a video demo... Show more
2,275 views 6 this week
3 commentsread comments
1 2 3 4 5
3 more votes to show rating
add to favorites
×
Save as Personal and add changes to this tab that will be seen only by you. Learn more ›
×
You can save this tab as Personal to edit and correct it or add notes. All changes will be seen only by you. Learn more »
launch autoscroll
font size
0
reset
how to read this tab
guitar tuner
edit
Autoscroll
slow
fast
+/-
esc
set tempo
stop
[Chorus]

e|----------------------------------------9-----------------------------------|
B|----10--12/-14-14-14-14-14------10--12-----12--10--9--9--10-----------------|
G|--9--------------------------9----------------------------------------------|
D|----------------------------------------------------------------------------|
A|----------------------------------------------------------------------------|
E|----------------------------------------------------------------------------|

e|--------------------12---------------------12-------------------------------|
B|--10--12--9--9--10------10--10---------10------10--10-----------------------|
G|--------------------------------9--11---------------------------------------|
D|----------------------------------------------------------------------------|
A|----------------------------------------------------------------------------|
E|----------------------------------------------------------------------------|


e|------9h10--9---------------------------------------------------------------|
B|--10-----------12--10h12----------------------------------------------------|
G|----------------------------------------------------------------------------|
D|----------------------------------------------------------------------------|
A|----------------------------------------------------------------------------|
E|----------------------------------------------------------------------------| 

            
            
Suggest correction
Creating personal tab
Creating personal tab
You can edit any tab online and save it as your Personal.

You can edit, replace or remove any tab part or add personal notes – all changes will be seen only by you.

Personal tabs can be accessed anytime from any device, even offline.
Learn more »
Give kudos to tab author, rate the tab!
1 2 3 4 5
comments
print report bad tab
3 comments total.
-1 reply
evobalatbat2303 54 Jul 12, 2016 05:46 AM

comment la po para sa mga corrections.. thanks..

-1 reply
crizz_andersen1 10 Aug 02, 2016 06:21 AM

sir paki complete ng tab sir plzz

intro - verse

0 reply
evobalatbat2303 54 Aug 14, 2016 11:16 AM

chords lang ung alam ko dun sa intro saka verse eh..

guest
You may want to rate the tab now too:
select rating
Wanna post a correction for this tab? Suggest correction