Oops, an error
Loading. Please wait.

You Gotta Not tab

325 views 3 this week
no commentswrite comment
1 2 3 4 5
3 more votes to show rating
add to favorites
×
Save as Personal and add changes to this tab that will be seen only by you. Learn more ›
×
You can save this tab as Personal to edit and correct it or add notes. All changes will be seen only by you. Learn more »
launch autoscroll
font size
0
reset
how to read this tab
guitar tuner
edit
Autoscroll
slow
fast
+/-
esc
set tempo
stop
Author
Difficulty
About this tab version
Plucking rhythm for the intro and verse. Was this info helpful? Yes No
Chords used:

 C#   F#  Ab  A#m Bm
e|-1-|-x-|-x-|-1-|-2-|
B|-2-|-2-|-4-|-2-|-3-|
G|-1-|-3-|-5-|-3-|-4-|
D|-3-|-4-|-6-|-3-|-4-|
A|-4-|-4-|-6-|-1-|-2-|
E|-x-|-x-|-x-|-x-|-x-|

(the rhythm is like 3 crotchets then 2 quavers as the song is in 4/4)
[Intro]
 C#
e|---------------------------------------------------------------------------|
B|---2------2------2------2--2-----------------------------------------------|
G|---------------------------------------------------------------------------|
D|---3------3------3------3--3-----------------------------------------------|
A|---4------4------4------4--4-----------------------------------------------|
E|---------------------------------------------------------------------------|

[Verse]

 C#
e|---------------------------------------------------------------------------|
B|---2------2------2------2--2-----------------------------------------------|
G|---------------------------------------------------------------------------|
D|---3------3------3------3--3-----------------------------------------------|
A|---4------4------4------4--4-----------------------------------------------|
E|---------------------------------------------------------------------------|

Call your mama "mommy"
(You gotta not!)
Askin' her for money
(You gotta not!)
Never keep your house clean
(You gotta not!)
Wearin' dirty laundry
(You gotta not!)

 F#                                                           C#
e|------------------------------------------------|-------------------------------|
B|------------------------------------------------|-----------2----2----2----2-2--|
G|------------------------3---3---3----3--3-------|-------------------------------|
D|------------------------4---4---4----4--4-------|-----------3----3----3----3-3--|
A|------------------------4---4---4----4--4-------|-----------4----4----4----4-4--|
E|------------------------------------------------|-------------------------------|
  Is that what you call flirtin'? (You gotta not!) You ain't even workin', boy get a job

 Ab                                               C#
e|---------------------------------------|-----------------------------------|
B|---------------------------------------|--------2----2------2--------------|
G|---------5--5--5---5--5----------------|-----------------------------------|
D|---------6--6--6---6--6----------------|--------3----3------3--------------|
A|---------6--6--6---6--6----------------|--------4----4------4--------------|
E|---------------------------------------|-----------------------------------|
 And baby when you wanna start growin' up We can boom, boom, boom, maybe fall in love


 C#
e|---------------------------------------------------------------------------|
B|---2------2------2------2--2-----------------------------------------------|
G|---------------------------------------------------------------------------|
D|---3------3------3------3--3-----------------------------------------------|
A|---4------4------4------4--4-----------------------------------------------|
E|---------------------------------------------------------------------------|
Oh, you don't like kids?
(You gotta not!)
And you still smoke cigs? {Ew!}
(You gotta not!)
Is you afraid of Blue's Clues?
(You gotta not!)
Do you still use a Bluetooth?
(You gotta not!)

F#                                                           C#
e|-------------------------------------------------|------------------------------|
B|-------------------------------------------------|----------2----2----2----2-2--|
G|------------------------3---3---3----3--3--------|------------------------------|
D|------------------------4---4---4----4--4--------|----------3----3----3----3-3--|
A|------------------------4---4---4----4--4--------|----------4----4----4----4-4--|
E|-------------------------------------------------|------------------------------|
  You love whitey-tighties (You gotta not!) {What?} Cause they only show off your muffin top

 And baby when you wanna start growin' up
Ab                                               C#
e|---------------------------------------|-----------------------------------|
B|---------------------------------------|--------2----2------2--------------|
G|---------5--5--5---5--5----------------|-----------------------------------|
D|---------6--6--6---6--6----------------|--------3----3------3--------------|
A|---------6--6--6---6--6----------------|--------4----4------4--------------|
E|---------------------------------------|-----------------------------------|
And baby when you wanna start growin' up  We can boom, boom, boom, maybe fall in love (Let's go!)

[Chorus]
C#       A#m
I need a man
              C#         A#m
A man who can act like a man
           C#             
So hear me now, I don't get paid to babysit no one
A#m
I'm out here lookin' for the one to love
         C#       A#m                 C#
Singin', I need a man, so hear me now

[Verse 2]
 D
e|---------------------------------------------------------------------------|
B|---3--3-3-3-3--------------------------------------------------------------|
G|---2--2-2-2-2--------------------------------------------------------------|
D|---0--0-0-0-0--------------------------------------------------------------|
A|---------------------------------------------------------------------------|
E|---------------------------------------------------------------------------|

Ah, you don't bump to The Weeknd?
(You gotta not!)
You argue with my best friend?
(You gotta not!)
Yeah all the hottie-totties
(You gotta not!)
If that's the way you party
(You gotta not!)
                  G                                         D
e|-----------------------------------------|---------------------------------|
B|----------------3---3---3---3--3---------|----------------3--3--3--3--3----|
G|----------------0---0---0---0--0---------|----------------2--2--2--2--2----|
D|----------------0---0---0---0--0---------|----------------0--0--0--0--0----|
A|-----------------------------------------|---------------------------------|
E|----------------3---3---3---3--3---------|---------------------------------|
  And everybody warned me (You gotta not!) But you're kinda hot, so I thought, why not?

          A                               D
e|---------------------------------------|-----------------------------------|
B|----------2--2--2--2--2----------------|---------3--3--3--3---3------------|
G|----------2--2--2--2--2----------------|---------2--2--2--2---2------------|
D|----------2--2--2--2--2----------------|---------0--0--0--0---0------------|
A|---------------------------------------|-----------------------------------|
E|---------------------------------------|-----------------------------------|
 And baby when you wanna start growin' up We can boom, boom, boom, maybe, fall in love

{Chorus]
D        Bm
I need a man
              D          Bm
A man who can act like a man
           D
So hear me now, I don't get paid to babysit no one
Bm
I'm out here lookin' for the one to love
         D        Bm                 
Singin', I need a man, so hear me now
D
Nah, nah, nah, nah, nah
Bm
Nah, nah, nah, nah, nah, nah, nah, nah
D
Nah, nah, nah, nah, nah
Bm
Nah, nah, nah, nah, nah, nah, nah, nah

[Bridge]
D
All my ladies, if you need a man, sing!
D
Call your momma "mommy" (You gotta not!)
D
Askin' her for money (You gotta not!)
         A
And baby when you wanna start growin' up
       D
We can boom, boom, boom, baby, fall in love

[Chorus]
D        Bm
I need a man
              D          Bm
A man who can act like a man
           D
So hear me now, I don't get paid to babysit no one
Bm
I'm out here lookin' for the one to love
         D        Bm                 
Singin', I need a man, so hear me now
D
Nah, nah, nah, nah, nah
Bm
Nah, nah, nah, nah, nah, nah, nah, nah
(So hear me now)
D
Nah, nah, nah, nah, nah
Bm
Nah, nah, nah, nah, nah, nah, nah, nah
(So hear me now)

[Outro]
D                
I need, I need a man
Bm                
I need, I need a man (I need a man)
D                
I need, I need a man
Bm                 D
I need, I need a man (I need a man)
(I need a man)


************************************

| x  Dead note

************************************

            
            
Suggest correction
Creating personal tab
Creating personal tab
You can edit any tab online and save it as your Personal.

You can edit, replace or remove any tab part or add personal notes – all changes will be seen only by you.

Personal tabs can be accessed anytime from any device, even offline.
Learn more »
Give kudos to tab author, rate the tab!
1 2 3 4 5
comments
print report bad tab
guest
You may want to rate the tab now too:
select rating
Wanna post a correction for this tab? Suggest correction