Oops, an error
Loading. Please wait.

Lady Bass Tab

version 1
version 1

Whole song

Interactive

1,078 views 6 this week
no commentswrite comment
1 2 3 4 5
please rate
add to favorites
launch autoscroll
font size
0
reset
guitar tuner
Autoscroll
slow
fast
+/-
esc
set tempo
stop
Help us to improve Ultimate-Guitar.com Take our survey!
×
Author
-----------------------------------------------------------------------------
                          LADY - Little River Band
-----------------------------------------------------------------------------

Tabbed by: Matt Broback
E-mail: 37hambone@gmail.com

Tuning: E A D G

INTRO
|------|-----|
|:----:|3:---|
|:----:|4:---|
|------|-----|

VERSE 1  x6
|----------|---------2|----|----|----|----|------|-----|
|:7-------:|7----.2-4-|----|----|7---|----|:----:|3:---|
|:--------:|-----0----|0---|----|----|----|:----:|4:---|
|----------|----------|----|----|----|0---|------|-----|

VERSE 2
|---------|----------|---------|--------|------------|
|---------|----------|---------|--------|------------|
|---------|----------|---------|--------|-5-5---5-5--|
|5-53-2-3-|5-53-32-3-|5-53-2-3-|5-3-2-3-|5---5-5---5-|

|----------|------------|------------|----------|----------|
|----------|------------|------------|----------|----------|
|----------|.7-7---5-5--|------------|----------|----------|
|35-53-2-0-|7---7-7---5-|05-53-35-53-|35-53-2-3-|5-53-32-0-|

CHORUS 1
|-------------|-------------|------------|----------|-------|
|:-.-----.----|------------:|-.-----.----|----------|-------|
|:-5-5---5-5--|-.----------:|-5-5---5-5--|.---------|7--5---|
|-5---5-5---5-|05-50-05-50--|5---5-5---5-|05-53-2-0-|-----7-|

SOLO
|--------|---------|------------|-----------|
|--------|---------|------------|-----------|
|--------|---------|-5-5---5-5--|.----------|
|5-3-2-3-|5-53-2-3-|5---5-5---5-|05-53-32-0-|

|--------|----------|-----------|-----|
|--------|----------|-----------|-----|
|7--5-7--|----------|-----------|-----|
|------7-|5-53-32-3-|35-53-32-3-|35---|

           .   .                   x4
|------|--11--12--17/18--.-.--|------|----|------|-----|
|:----:|-.---.---.16/17.1614--|:----:|----|:----:|3:---|
|:----:|12--12---0-----0------|:----:|----|:----:|4:---|
|------|----------------------|------|0---|------|-----|

CHORUS 2
|------------|------------|------------|------------|------------|
|------------|-.-----.----|------------|-.-----.----|------------|
|------------|-5-5---5-5--|-.----------|-5-5---5-5--|-.----------|
|5-53-32-355-|5---5-5---5-|05-50-05-50-|5---5-5---5-|05-50-05-50-|

|-------------|---------|----------|--------|--------|
|--.-----.----|---------|----------|--------|--------|
|--5-5---5-5--|---------|7---5-57--|--------|7---5---|
|75---5-5---5-|05-3-2-0-|--------7-|5-3-2-0-|------7-|

OUTRO                                           Repeat to fade
|---------|-----------|----------|---------------|------------|
|---------|-----------|----------|:---------4----|-----------:|
|---------|-----------|----------|:--------------|-----------:|
|5-53-2-3-|35-53-2-23-|35-53-2-3-|-35-53-32--023-|45-53-32-3--|
Suggest correction
What's this?
You can suggest a correction to this tab. Community and Mods will review your correction and vote to approve or reject it.
comments
We did not receive enough feedback on this tab! Please rate:
print report bad tab
1 2 3 4 5
guest
You may want to rate the tab now too:
select rating
Please do not post tabs as comments. Select "correction" instead!