Oops, an error
Loading. Please wait.

Lady Tab

version 1
version 1

Whole song

Interactive

10,860 views 3 this week
1 commentread comment
1 2 3 4 5
accurate
x 3
add to favorites
launch autoscroll
font size
0
reset
how to read this tab
guitar tuner
Tab Pro tools
  • play this tab
  • loop segment
  • change instrument
  • show fretboard
  • metronome
×
Best way to learn
"Lady"
Autoscroll
slow
fast
+/-
esc
set tempo
stop
Difficulty
intermediate
Song: Lady
Artist: Little River Band

Tabbed by: Nick Colonna
(nickcolonna@gmail.com)

Most posted verions are WAY wrong. This is my second tab posting
in 11 years (when in 6th grade I submitted this:
http://www.cowboylyrics.com/tabs/misc/sounds-of-silence-3306.html
because of this same situation.)
This is my best guess:

Standard tuning, no capo.

Intro:
  |       |       |       |       |       |       |       |       |
E--------------------------------------------------------------------------|
B--------------------------------------------------------------------------|
G-7--6--------7---6-------2-------4----------------------------------------|
D-7--7--------7---7-------3-------5----------------------------------------|
A--------------------------------------------------------------------------|
E--------------------------------------------------------------------------|

  |       |       |       |       |       |       |       |       |       |
E---------------------------------------------------------------------------|
B---------------------------------------------------------------------------|
G-7--6-------7---11-------9-------6-------7-------4-------------------------|
D-7--7-------7---12-------11------7-------7-------5-------------------------|
A---------------------------------------------------------------------------|
E---------------------------------------------------------------------------|

  |       |       |       |
E-2-------------------------------|
B-3--(PIANO LICK)-----------------|
G-2-------------------------------|
D-0-------------------------------|
A---------------------------------|
E---------------------------------|
- - - - - - - - - - - - - - - - - - - - - - - - - - - - - - - - - - - - - - - -
VERSE 1:
  |       |       |       |
E-----------------------------------------------------------------------|
B-----------------------------------------------------------------------|
G-----2-------2-------2-------2---  <<<-- mAIN VERSE pICKING (REPEAT 10-| TIMES)
D---2---2---2---2---2---2---2---2---------------------------------------|
A-0---------------------------------------------------------------------|
E---------3-------2-------3---------------------------------------------|

Look around you, look up here.
take time to make time, make time to be there.
look around, be a part.
feel for the winter, but dont have a cold heart.
- - - - - - - - - - - - - - - - - - - - - - - - - - - - - - - - - - - - - - - -
PRE-CHORUS:
  |
E-----0---------------------|
B-------3-  <<--- REPEAT 15-| TIMES)
G---1-----------------------|
D-2-------------------------|
A---------------------------|
E---------------------------|

and I love you best, you're not like the rest.
You're there when I need you you're there when I need.
I'm gonna need you.
- - - - - - - - - - - - - - - - - - - - - - - - - - - - - - - - - - - - - - - -
VERSE 2:
  |   |   |   |   |   |   |   |
E-----0-0-----0-0-----0-0-----0-0---------|
B-----2-2-----2-2-----2-2-----2-2---------|
G-----2-2-----2-2-----2-2-----2-2-  <<<---|  (4 TIMES)
D-----2-2-----2-2-----2-2-----2-2---------|
A-0---0-0-----X-X-----X-X-----X-X---------|
E-----X-X-3-------2-------3---------------|

	A long time ago I had a lady to love,


  |   |   |   |   |   |   |   |   |   |   |   |   |   |   |   |
E-2-----2-2-------2-----2-2-----------0-0-----0-0-----0-0-----0-0-|
B-3-----3-3-------3-----3-3-----------2-2-----2-2-----2-2-----2-2-|
G-2-----2-2-------2-----2-2-----------2-2-----2-2-----2-2-----2-2-|
D-0-----0-0-------0-----0-0-----------2-2-----2-2-----2-2-----2-2-|
A---------------------------------0---0-0-----X-X-----X-X-----X-X-|
E-------------------------------------X-X-3-------2-------0-------|
she made me think of things I never thought of

  |   |   |   |   |   |   |   |
E-0-----0-0-------2-----2-2-------|
B-0-----0-0-------3-----3-3-------|
G-1-----1-1-------2-----2-2-------|
D-2-----2-2-------0-----0-0-------|
A-2-----2-2-----------------------|
E-0-----0-0-----------------------|
now she's gone and I'm on my own.

  |   |   |   |   |   |   |   |
E-----0-0-----0-0-----0-0-----0-0---------|
B-----2-2-----2-2-----2-2-----2-2---------|
G-----2-2-----2-2-----2-2-----2-2-  <<<---|  (2 TIMES)
D-----2-2-----2-2-----2-2-----2-2---------|
A-0---0-0-----X-X-----X-X-----X-X---------|
E-----X-X-3-------2-------3---------------|
A love song is comin to my mind, a love song it was there all the time.

  |   |   |   |   |   |   |   |
E-----0-0-----0-0-----0-0-----0-0-|
B-----2-2-----2-2-----2-2-----2-2-|
G-----2-2-----2-2-----2-2-----2-2-|
D-----2-2-----2-2-----2-2-----2-2-|
A-0---0-0-----X-X-----X-X-----X-X-|
E-----X-X-3-------2-------0-------|
- - - - - - - - - - - - - - - - - - - - - - - - - - - - - - - - - - - - - - - -
CHORUS:
  |   |   |   |   |   |   |   |   |   |   |   |   |   |   |
E-2-----2-2-------2-----2-2-------0-----0-0-------0-----0-0---|
B-3-----3-3-------3-----3-3-------2-----2-2-------2-----2-2---|
G-2-----2-2-------2-----2-2-------2-----2-2-------2-----2-2---|
D-0-----0-0-------0-----0-0-------2-----2-2-------2-----2-2---|
A---------0---------------0-------0-----0-0-------0-----X-0---|
E---------------------------------------X-0---------------0---|
So Lady, let me take a look at you now.
You're there on the dance floor, making me want you some how.

  |   |   |   |   |   |   |   |   |   |   |   |   |   |   |
E-2-----2-2-------2-----2-2-----------0-0-----0-0-----0-0-----0-0-|
B-3-----3-3-------3-----3-3-----------2-2-----2-2-----2-2-----2-2-|
G-2-----2-2-------2-----2-2-----------2-2-----2-2-----2-2-----2-2-|
D-0-----0-0-------0-----0-0-----------2-2-----2-2-----2-2-----2-2-|
A---------0---------------0-------0---0-0-----X-X-----X-X-----X-X-|
E-------------------------------------X-X-3-------2-------0-------|
So Lady, I think it's only fair I should say to you.

  |       |       |       |
E-0---------------2-------2-------|
B-0---------------3-------3-------|
G-1---------------2-------2-------|
D-2--(LET RING)---0-------0-------|
A-2-------------------------------|
E-0-------------------------------|
Don't be thinking that I don't want you, cuz' maybe I do.
- - - - - - - - - - - - - - - - - - - - - - - - - - - - - - - - - - - - - - - -
	 	  |   |   |   |   |   |   |   |
        E-----0-0-----0-0-----0-0-----0-0-----------------|
        B-----2-2-----2-2-----2-2-----2-2-----------------|
(GUITAR SOLO-   G-----2-2-----2-2-----2-2-----2-2-  <<<---|  (2 TIMES)
 STARTS HERE)    D-----2-2-----2-2-----2-2-----2-2--------|
        A-0---0-0-----X-X-----X-X-----X-X-----------------|
        E-----X-X-3-------2-------3-----------------------|

  |   |   |   |   |   |   |   |   |   |   |   |   |   |   |   |
E-2-----2-2-------2-----2-2-----------0-0-----0-0-----0-0-----0-0-|
B-3-----3-3-------3-----3-3-----------2-2-----2-2-----2-2-----2-2-|
G-2-----2-2-------2-----2-2-----------2-2-----2-2-----2-2-----2-2-|
D-0-----0-0-------0-----0-0-----------2-2-----2-2-----2-2-----2-2-|
A---------0---------------0-------0---0-0-----X-X-----X-X-----X-X-|
E-------------------------------------X-X-3-------2-------0-------|

  |       |       |       |           |   |   |   |   |   |   |   |
E-0---------------2-------2-------  E-----0-0-----0-0-----0-0-----0-0-|
B-0---------------3-------3-------  B-----2-2-----2-2-----2-2-----2-2-|
G-1---------------2-------2-------  G-----2-2-----2-2-----2-2-----2-2-| (2x)
D-2--(LET RING)---0-------0-------  D-----2-2-----2-2-----2-2-----2-2-|
A-2-------------------------------  A-0---0-0-----X-X-----X-X-----X-X-|
E-0-------------------------------  E-----X-X-3-------2-------3-------|
- - - - - - - - - - - - - - - - - - - - - - - - - - - - - - - - - - - - - - - -
(this next part is mostly piano - but you can play the normal verse A-shape)

Look around, come to me.
I have no answers, but know where I wanna be.
I look around. Way apart.
I was born in the winter but cooled by a warm hart.
- - - - - - - - - - - - - - - - - - - - - - - - - - - - - - - - - - - - - - - -
[PRE-CHORUS]
- - - - - - - - - - - - - - - - - - - - - - - - - - - - - - - - - - - - - - - -
[CHORUS + THE FOLLOWING]
  |       |       |       |
E-0---------------2-------2-------|
B-0---------------3-------3-------|
G-1---------------2-------2-------|
D-2--(LET RING)---0-------0-------|
A-2-------------------------------|
E-0-------------------------------|
Don't be thinking that I don't want you, Lady, I do.
- - - - - - - - - - - - - - - - - - - - - - - - - - - - - - - - - - - - - - - -
OUTTRO:
IF YOU GOT THIS FAR... YOU CAN MANAGE THE REST.
I HOPE IT'S ENOUGH TO LET YOU ROCK IT LIKE YOU SHOULD.

-NICK COLONNA
comments
We did not receive enough feedback on this tab! Please rate:
print report bad tab
1 2 3 4 5
1 comment total.
0 reply
baddguitar wrote on February 9 2010, 07:59 pm

Really nice. Thanks!

I want to post or [tab]
guest
You may want to rate the tab now too:
select rating
Please do not post tabs as comments. Select "correction" instead!