Oops, an error
Loading. Please wait.

Reminiscing Bass Tab

version 1
version 1

Whole song

Interactive

2,507 views 1 this week
no commentswrite comment
1 2 3 4 5
please rate
add to favorites
launch autoscroll
font size
0
reset
guitar tuner
Tab Pro tools
  • play this tab
  • loop segment
  • change instrument
  • show fretboard
  • metronome
×
Best way to learn
"Reminiscing"
Autoscroll
slow
fast
+/-
esc
set tempo
stop
Contributor
Reminiscing
Little river band
Tabbed by: avill616@yahoo.com

intro
G|---------------------------|--------------------------|
D|---------------------8--8--|--------------6--6--------|
A|--6--6--6--6---8--8--------|-6--6--6--6---------4--4--|
E|---------------------------|--------------------------|

G|-----------------------------|--------------------|
D|-----------------------------|--------------------|
A|--9--9-----------7-7-7---5-5-|--5-7-5-------------|
E|--------7--7--------------7--|----------0---1-2-0-|

Verse1
G|-----------------------|---------------|----------------------|
D|-----------------------|---------------|------5---------------|
A|----------5-2---3---3--|-2---2---2-----|-------------3----3-2-|
E|--3---3--------------3-|-----------1-3-|--3----3----3----3----|

G|---------------------------------|
D|---------------------------------|
A|------2---------0-2----5--5---5--|
E|--1-0-----1-3--------------------|

Verse2
G|-------------------------|---------------|----------------------|
D|-------------------------|---------------|------5---------------|
A|--------5---5-2---3---3--|-2---2---2-----|-------------3----3-2-|
E|--3---3----------------3-|-----------1-3-|--3----3----3----3----|

G|--------------------------7------|
D|---------------------------------|
A|------2---------0-2----5------5--|
E|--1-0-----1-3--------------------|

Chorus1
G|-------10-11--------------------|---------------------8-|
D|----5--------12-12-12-12-12-12--|-5---8-9---7-9---------|
A|--------------------------------|-----------------------|
E|--3-----------------------------|--------------7---7-7--|

G|------------------------|
D|------------------------|
A|------0-2----2----5---5-|
E|--3---------1-----------|

Instrumental
G|---------------------------|--------------------------|
D|---------------------8--8--|--------------6--6--------|
A|--6--6--6--6---8--8--------|-6--6--6--6---------4--4--|
E|---------------------------|--------------------------|

G|--------------------|---------------------|
D|--------------------|---------------------|
A|--9--9-----------7--|-5----5--------------|
E|--------7--7--------|-----------0---1-2-0-|

Verse3
G|-----------------------|------------------------------|
D|-----------------------|---------------------------5--|
A|-------------5-2---2-3-|--2---2------------------5----|
E|--3---3-3--------------|-------1-3---3-3---3-3------3-|

G|-----------------|----------------|---7-7-7------------|
D|-----------------|----------0-----|--------------------|
A|-3-3----3----3-2-|------------0-2-|-5-------5---5--5-5-|
E|-------3----3----|--1-1-3---------|--------------------|

Chorus2
G|-------10-11--------------------|--------------------------|
D|----5--------12-12-12-12-12-12--|-5---5-8-9---7-9----------|
A|--------------------------------|--------------------------|
E|--3-----------------------------|----------------7---7-7-0-|

G|------------------------------|
D|------------------------------|
A|--------0-2------2----5---5-5-|
E|--3---3--------1--------------|

Solo (trumphet)
G|------------------------|------------------------------|
D|------------------------|------------------------------|
A|------------5-2-3-----2-|--2--------3-3------3-2----2--|
E|--3---3-3-----------3---|----1-3---3-------3-------3---|


G|----7-7-----9-|
D|--0----0--0---|
A|--------------| repeat till fade
E|--------------|
comments
We did not receive enough feedback on this tab! Please rate:
print report bad tab
1 2 3 4 5
I want to post or [tab]
guest
You may want to rate the tab now too:
select rating
Please do not post tabs as comments. Select "correction" instead!