Oops, an error
Loading. Please wait.

Reminiscing Bass Tab

version 2
version 2

Whole song

Interactive

800 views 1 this week
no commentswrite comment
1 2 3 4 5
3 more votes to show rating
add to favorites
launch autoscroll
font size
0
reset
guitar tuner
Autoscroll
slow
fast
+/-
esc
set tempo
stop
Help us to improve Ultimate-Guitar.com Take our survey!
×
Author
-----------------------------------------------------------------------------
                       REMINISCING - Little River Band
-----------------------------------------------------------------------------

Tabbed by: Matt Broback
E-mail: 37hambone@gmail.com

Tuning: E A D G


INTRO
|--------|--------|--------|--------|--------|----------|---------|---------|
|--------|----8-8-|--------|6-6-----|4-4-----|-------.-.|-------.-|---------|
|6-6-6-6-|8-8-----|6-6-6-6-|----4-4-|--------|7-7-7-75-0|5------05|5---.--.-|
|--------|--------|--------|--------|----7-7-|----------|---------|----10-12|


VERSE 1
|---------|----------|---------|---------|---------|---------|---------|----------|
|---------|------.--.|--------.|-------.-|--------.|---------|---------|-------5-.|
|--------.|------05-0|3-------0|3------03|2-------0|2------.-|--------.|------.--0|
|3-------0|3---------|---------|---------|---------|-------02|3-------0|3-----3---|

|---------|---------|----------|---------|---------|---------|---------|--------|
|-------.-|-------.-|-----.---.|---------|---------|--------.|--------.|--------|
|3------03|3------03|2----2.-.0|2------.-|-------.0|1-------0|5--5----0|5-------|
|---------|---------|------022-|-------02|3------0-|---------|---------|--------|


VERSE 2
|-------.-|----------|---------|---------|---------|----------|---------|----------|
|-------5-|5-----.5-.|--------.|-------.-|---------|----------|---------|------.--.|
|--------5|------5--0|3-------0|3------03|2-------.|2----.--.-|-------.-|------05-0|
|3--------|----------|---------|---------|--------2|-----30-02|3------03|3---------|

|---------|---------|----------|----------|----------|---------|---------|--------|
|-------.-|-------.5|-----.---.|----------|---------.|--------.|--------.|--------|
|3------03|3------0-|2----2.-.0|2-----.--.|------.--0|1-------0|5--5----0|5-------|
|---------|---------|------022-|------02-0|3-----03--|---------|---------|--------|

CHORUS 1
      .
|----1011-.----.|--------|---------|-----.78--|---------|---------|--------|-------|
|--------1212--0|5------8|9------.9|-----9----|---------|-------.-|--------|-------|
|---------------|--------|-------9-|---------.|-------.0|1------03|5--5----|5------|
|3--------------|--------|7--------|7--------0|3------3-|---------|--------|-------|


BRIDGE
|--------|--------|--------|--------|--------|---------|---------|----------|
|--------|----8-8-|--------|6-6-----|4-4-----|--------.|--------.|----------|
|6-6-6-6-|8-8-----|6-6-6-6-|----4-4-|--------|7-------0|5-------0|5----.-...|
|--------|--------|--------|--------|----7-7-|---------|---------|-----10212|


VERSE 3
|---------|----------|---------|---------|----------|---------|---------|----------|
|---------|------.--.|-------.-|--------.|----------|---------|---------|-----.45-.|
|-------.-|------05-0|3------03|3-------0|2----.--.-|2------.-|-------.-|-----5---0|
|3------03|3---------|---------|---------|-----10-12|-------02|3------03|3---------|

                                                              .
|---------|----------|----------|----------|---------|-----.3-33|---------|--------|
|-------.-|------.--.|---------.|-----.----|---------|-----3----|-------.-|--------|
|3------03|3-----03-3|2-----.--0|2----2--.-|-------.0|1---------|5--5---05|5-------|
|---------|----------|------02--|------0-02|3------3-|----------|---------|--------|


CHORUS 2
      .
|----1011-.---.|--------|--------.|----------|----------|---------|---------|------14\|
|--------1212-0|5------8|9-----9-9|-----.----|-----.----|-------.-|-------.-|---------|
|--------------|--------|-----9---|-----2--.-|-----0--.0|1------03|5--5---05|5--------|
|3-------------|--------|7--------|7-----0-02|3-----3-3-|---------|---------|---------|


SOLO
|---------|----------|---------|---------|-----------|----------|---------|---------|
|--------5|------5--5|-------.-|-------.-|-----.---.-|-----.----|---------|-------.-|
|-------.-|-----.--.-|3------03|3------03|2----2---0-|2----2--.-|-------.0|1------20|
|3------3-|3----3--3-|---------|---------|------02--2|------0-02|3------3-|---------|


OUTRO
|---.--.--.7-.--|
|:0-09-07-0--9.:|
|:------------7:|
|---------------|
Suggest correction
Give kudos to tab author, rate the tab!
1 2 3 4 5
comments
print report bad tab
guest
You may want to rate the tab now too:
select rating
Wanna post a correction for this tab? Suggest correction