Oops, an error
Loading. Please wait.

God Blessed Texas tab

version 1
version 1

Whole song

  • Includes solo and all lead parts.

Interactive

76 views 3 this week
no commentswrite comment
1 2 3 4 5
2 more votes to show rating
add to favorites
×
Save as Personal and add changes to this tab that will be seen only by you. Learn more ›
×
You can save this tab as Personal to edit and correct it or add notes. All changes will be seen only by you. Learn more »
launch autoscroll
font size
0
reset
how to read this tab
guitar tuner
edit
Autoscroll
slow
fast
+/-
esc
set tempo
stop
Author
Difficulty
About this tab version
Includes solo and all lead parts. Was this info helpful? Yes No
[Intro] [Slide]
e|-------|----------|      
B|-------|-3-3-2----|      
G|-------|-2-2-2-2--| (x2)  
D|-------|-------2--|      
A|-----0-|-------0--|      
E|-0h2---|----------|      

[if you use a slide, slide up from 17 to 19]
e|---------------|
B|-s22-----------|
G|-----21-17b----|
D|------------19-|
A|---------------|
E|---------------|

[Verses are a standard blues riff for each chord; in the lyrics I'll just write A, E or D, but this
is what you play]
        A         E         D
e|---------|---------|---------|                                                  
B|---------|---------|-3-3-3-3-|                                                  
G|-2---2---|---------|-2-4-2-4-|  
D|-2-4-2-4-|-2---2---|-0-0-0-0-|                                                  
A|-0-0-0-0-|-2-4-2-4-|---------|                                                  
E|---------|-0-0-0-0-|---------|                                                  

[at the end of each line they play the intro bit]
e|---------|
B|-3-3-2---|
G|-2-2-2-2-| x2
D|-------2-|
A|-------0-|
E|---------|

[Verse]
A
I've seen a lot of places
                          (Intro bit)
I've been around the world
E
I've been seen pretty faces
                         A (Intro bit)
Been with some beautiful girls
A
After all I've witnessed
                         (Intro bit)
One thing still amazes me
E                                         A
Just like a miracle, you have to see to believe

[Pre chorus]
e|----------------|
B|----------------|
G|-S9-------------|
D|-S9-------------|
A|----0-0-2-2-3-3-|
E|----------------|

[Chorus]
D
God blessed Texas
With His own hand
A
Brought down angels from the promised land
D
Gave 'em a place where they could dance
       A
If you want to see heaven, brother, here's you chance
E
I've been sent to spread the message
A (One strum)
God blessed Texas.

[Instrumental]
e|---------------|
B|-s22-----------|
G|-----21-17b----|
D|------------19-|
A|---------------|
E|---------------|

[Verse]
A
First, He let the sun shine
                            (Intro bit)
Then He made the waters deep
E
Then He gave us moonlight
                     A (Intro bit)
For all the world to see
                                                           (Intro bit)
Well everybody knows that the Lord works in mysterious ways
E                                     A
He took a rest, then on the very next day

[Pre chorus]
e|----------------|
B|----------------|
G|-S9-------------|
D|-S9-------------|
A|----0-0-2-2-3-3-|
E|----------------|

[Chorus]
D
God blessed Texas
With His own hand
A
Brought down angels from the promised land
D
Gave 'em a place where they could dance
       A
If you want to see heaven, brother, here's you chance
E
I've been sent to spread the message
A (One strum)
God blessed Texas.

[Solo]
e|---------------|----------------------------------------|------------------------------|
B|-s22-20--------|----------------------------------------|------------------------------|
G|--------21b-19-|-----22-22-----22-22-----22-------------|-19---------------------------|
D|---------------|-s21-------s21-------s21----21-19-17----|----15s-s12-12-12p10----10h12-|
A|---------------|-------------------------------------19-|---------------------12-------|
E|---------------|----------------------------------------|------------------------------|

e|--------------------------------------|-------------------------------------------|
B|--------------------------------------|-----17p15h17p15-----15p12h15p12-----------|
G|-----12----14-12----------------------|-s16-------------s13-------------9p7---7h9-|
D|-s14----14-------14p12-12p10----------|-------------------------------------9-----|
A|-----------------------------12-10h12-|-------------------------------------------|
E|--------------------------------------|-------------------------------------------|

e|---------------------------|
B|-14p10----10---------------|
G|-------12----9----------14-|
D|---------------12p10-------|
A|---------------------12----|
E|---------------------------|

[Chorus]
D
God blessed Texas
With His own hand
A
Brought down angels from the promised land
D
Gave 'em a place where they could dance
       A
If you want to see heaven, brother, here's you chance
E
I've been sent to spread the message
A (One strum)
God blessed Texas.

[Bass interlude]
E
I've been sent to spread the message
A (One strum)
God blessed Texas.
E
I've been sent to spread the message
A (One strum)
God blessed Texas.

[Outro]
e|---------------|-------------------|
B|-s22-----------|-10p8-8p7-7p5------|
G|-----21-17b----|--------------5b---|
D|------------19-|-----------------7-|
A|---------------|-------------------|
E|---------------|-------------------|

************************************

| s slide; if it's s then the number, slide up to it; s after, slide down from it.
| b bend
| r breverse bend
| h hammer-on
| p pull-offb  Bend
| h  Hammer-on
| p  Pull-off

************************************

            
            
Suggest correction
Creating personal tab
Creating personal tab
You can edit any tab online and save it as your Personal.

You can edit, replace or remove any tab part or add personal notes – all changes will be seen only by you.

Personal tabs can be accessed anytime from any device, even offline.
Learn more »
Give kudos to tab author, rate the tab!
1 2 3 4 5
comments
print report bad tab
guest
You may want to rate the tab now too:
select rating
Wanna post a correction for this tab? Suggest correction