Oops, an error
Loading. Please wait.

My Love bass

22 views 1 this week
no commentswrite comment
1 2 3 4 5
3 more votes to show rating
add to favorites
×
Save as Personal and add changes to this tab that will be seen only by you. Learn more ›
×
You can save this tab as Personal to edit and correct it or add notes. All changes will be seen only by you. Learn more »
launch autoscroll
font size
0
reset
guitar tuner
edit
Autoscroll
slow
fast
+/-
esc
set tempo
stop
Author
Difficulty
About this tab version
I can't find a Bass Version, hoping my version can help or be improved. Was this info helpful? Yes No
                               MY LOVE (BASS LINE)
                             My Love by Little Texas

Level: Beginner

Gtr I (E A D G) - 'Untitled'

   4/4
    GtGtr I

[INTRO]
    W    Q  H.   Q  H.    H  H
||-----|-------|--------|-7--------||
||o-7--|-------|--------|---------o||
||o----|-2--4--|-4--5---|----5----o||
||-----|-------|--------|----------||

[VERSE 1 - 2]
    H  H       Q   H.         Q   H.         Q   Q  H
||----------|--------------|--------------|--7-----------||
||o-7--7----|--------------|--------------|-------------o||
||o---------|--4---4-------|--5---5-------|------5------o||
||----------|--------------|--------------|--------------||


    Q   Q.   Q.     Q   Q.   Q.     Q   Q.   Q.     Q.  Q.  Q.  Q.
|----------------|---------------|---------------|-------------------|
|----------------|---------------|---------------|-------------------|
|---7---7----7---|--7---7----7---|--5---5----5---|--7---7---7---7----|
|----------------|---------------|---------------|--h---h---h---h----|

[CHORUS]
  Q   Q  H       Q   Q  H       Q   Q   H      Q   Q  H       Q    Q  H
|------------|--------------|--------------|---------------|---------------|
|-7---7------|--------------|--------------|---------------|--7----7-------|
|------------|---4---4------|---5---5------|---7---7-------|---------------|
|------------|--------------|--------------|---------------|---------------|


  Q  Q  H    Q  Q  H     Q  Q  H      E  E  Q  H
|----------|-----------|------------|---------------|
|----------|-----------|------------|-7--7----------|
|-4--4-----|-5--5------|-6--6-------|-------7-------|
|----------|-----------|------------|---------------|


  H  H     Q  H.     Q  H.    H  H
|--------|--------|---------|-7-------|
|-7--7---|--------|---------|---------|
|--------|-2--4---|--4--5---|----5----|
|--------|--------|---------|---------|

[PLAY VERSE 2]

    H H      Q  Q  H    Q  Q  H    Q  Q  H
||--------|----------|----------|--7-----------||
||o-------|----------|----------|-------------o||
||o-7-7---|--2--4----|--4--5----|-----5-------o||
||--------|----------|----------|--------------||


  H.  Q     Q  Q.  Q.      Q  Q.  Q.      Q  Q  Q  Q
|---------|-------------|--------------|----------------|
|---------|-------------|--------------|----------------|
|-7-------|-7--7---7----|--5--5---5----|--7--7--7--9----|
|---------|-------------|--------------|--h--h--h--h----|

[OUTTRO]

< KEY CHANGE >

  H.    Q          Q   Q  H       Q   Q  H
|------------|--------------|--------------|
|-9----------|--------------|--------------|
|-------5----|-----6---6----|-----7---7----|
|------------|--------------|--------------|


      Q   Q  H          Q     Q    H
|-----------------|---------------------|
|-----------------|-----------9---------|
|-----9---6-------|-----9---------------|
|-----------------|---------------------|


  H.  Q    Q..   S  Q  Q    Q..  S  Q  Q     Q..  S  Q  Q     Q..  S  Q Q
|--------|----------------|----------------|----------------|----------------|
|-9------|----------------|----------------|----------------|----------------|
|-----2--|-5-----6--6--6--|-7----7--7--7---|-8----8--8--8---|-8----7--7-7----|
|--------|----------------|----------------|----------------|----------------|


  Q..   S   Q   Q         Q.   E   Q.   E
|-------------------||-----------------------||-|
|-------------------||o---9-----------------o||-|
|-7-----9---9---9---||o--------6---7----7---o||-|
|-------------------||-----------------------||-|

[ENDING]
      Q.   E   Q.   E      Q.    E  Q.     E    T..   t..
||----------------------|--------------------|---------------||
||o---9-----------------|--9-----------------|--9-----------o||
||o--------6---7----7---|--------6--7------7-|--------9-----o||
||----------------------|--------------------|---------------||


Duration Legend
---------------
W - whole; H - half; Q - quarter; E - 8th; S - 16th; T - 32nd; X - 64th; a - acciaccatura
+ - note tied to previous; . - note dotted; .. - note double dotted
Uncapitalized letters represent notes that are staccato (1/2 duration)
Irregular groupings are notated above the duration line
Duration letters will always appear directly above the note/fret number it represents the
duration for.  Duration letters with no fret number below them represent rests.  Multi-
bar rests are notated in the form Wxn, where n is the number of bars to rest for.  Low
melody durations appear below the staff

Misc Legend
-----------
 |  - bar
||  - double bar
||o - repeat start
o|| - repeat end
*|  - double bar (ending)
 :  - bar (freetime)
 $  - Segno
 &  - Coda
 h  - hammer
Tempo markers -  = BPM(8/16=s8/s16), where s8 = swing 8ths, s16 = swing 16ths
Suggest correction
Creating personal tab
Creating personal tab
You can edit any tab online and save it as your Personal.

You can edit, replace or remove any tab part or add personal notes – all changes will be seen only by you.

Personal tabs can be accessed anytime from any device, even offline.
Learn more »
Give kudos to tab author, rate the tab!
1 2 3 4 5
comments
print report bad tab
guest
You may want to rate the tab now too:
select rating
Wanna post a correction for this tab? Suggest correction