Oops, an error
Loading. Please wait.

Blues With A Feeling bass

731 views 6 this week
no commentswrite comment
1 2 3 4 5
3 more votes to show rating
add to favorites
×
Save as Personal and add changes to this tab that will be seen only by you. Learn more ›
×
You can save this tab as Personal to edit and correct it or add notes. All changes will be seen only by you. Learn more »
launch autoscroll
font size
0
reset
guitar tuner
edit
Autoscroll
slow
fast
+/-
esc
set tempo
stop
Author
Difficulty
Transcribed by Todd Christensen

Blues With A Feeling: Little Walter Jacobs Bass Tab  80 BPM
                     Intro start here with Harp (this repeats 4 times)
   A                 A                 A                 A
   +   +   +   +     +   +   +   +     +   +   +   +     +   +   +   +
G|-----------------|-----------------|-----------------|-----------------|  
D|---------2-----2-|---------2-----2-|---------2-----2-|---------2-----2-|
A|-0---3-4-----4---|-0---3-4-----4---|-0---3-4-----4---|-0---3-4-----4---|
E|-----------------|-----------------|-----------------|-----------------|
Harp Intro
     Blues with a feeling
Harp solo
     What a lonesome feeling
   D7                D7                A                 A
   +   +   +   +     +   +   +   +     +   +   +   +     +   +   +   +
G|---------2-----2-|---------2-----2-|-----------------|-----------------|  
D|-0---3-4-----4---|-0---3-4-----4---|---------2-----2-|---------2-----2-|
A|-----------------|-----------------|-0---3-4-----4---|-0---3-4-----4---|
E|-----------------|-----------------|-----------------|-----------------|
Harp Intro
Blues with a feeling 
Harp solo
lonesome
   E7                D7                A                    E7
   +   +   +   +     +   +   +   +     +   +   +   +     +   +   +   +
G|-----------------|---------2-----2-|-----------------|-----------------|  
D|-----------------|-0---3-4-----4---|---------2-----2-|-----------------|
A|---------2-----2-|-----------------|-0---3-4-----4---|-0---------------|
E|-0---3-4-----4---|-----------------|-----------------|---0-0-0---------|
Harp Intro
   Find my baby
theone that your loving

Interlude
   A                 A                 A                 A
   +   +   +   +     +   +   +   +     +   +   +   +     +   +   +   +
G|-----------------|-----------------|-----------------|-----------------|  
D|-------------2---|-------------2---|-----------------|-----------------|
A|-0---------4---4-|-0---------4---4-|-0---------------|-0-0-0-0-0-0-0-0-|
E|-----------------|-----------------|-----------------|-----------------|
youknow. . .     I   wonder. . .   you told. . .     you left me here

   D7                D7                A                 A
   +   +   +   +     +   +   +   +     +   +   +   +     +   +   +   +
G|---------2-----2-|---------2-----2-|-----------------|-----------------|  
D|-0---3-4-----4---|-0---3-4-----4---|---------2-----2-|---------2-----2-|
A|-----------------|-----------------|-0---3-4-----4---|-0---3-4-----4---|
E|-----------------|-----------------|-----------------|-----------------|
Blues with a feeling             today
   E7                D7                A                 A7
   +   +   +   +     +   +   +   +     +   +   +   +     +   +   +   +
G|-----------------|-----------------|---------0-0-0-0-|-----------------|  
D|-----------------|-0---------------|-----------------|-----------------|
A|---------2-----2-|-----------------|---0-3-4---------|-0---------------|
E|-0---3-4-----4---|-----------------|-----------------|---0-1-3-(ring)--|
   Find                  If it. . .    day

            
            
Suggest correction
Creating personal tab
Creating personal tab
You can edit any tab online and save it as your Personal.

You can edit, replace or remove any tab part or add personal notes – all changes will be seen only by you.

Personal tabs can be accessed anytime from any device, even offline.
Learn more »
Give kudos to tab author, rate the tab!
1 2 3 4 5
comments
print report bad tab
guest
You may want to rate the tab now too:
select rating
Wanna post a correction for this tab? Suggest correction