Oops, an error
Loading. Please wait.

All Over You tab

version 1
version 1

Whole song

Interactive

by Live
47,437 views 39 this week
2 commentsread comments
1 2 3 4 5
x 13
add to favorites
×
Save as Personal and add changes to this tab that will be seen only by you. Learn more ›
×
You can save this tab as Personal to edit and correct it or add notes. All changes will be seen only by you. Learn more »
launch autoscroll
font size
0
reset
how to read this tab
guitar tuner
backing track
0:00
0:00
edit
Autoscroll
slow
fast
+/-
esc
set tempo
stop
LIVE  -  ALL OVER YOU

Here's my version of the song (lyrics included)

- Tuning low to high Eb Ab Db Gb Bb Eb
- As heard on MTV's "Unplugged"
- Transcribed by S.C. Kramer, my interpretation !
- Additions to sc.kramer.technet.nl

Chord suggestion (played as they would in normal tuning):

         G   F#  Bm  A   D  Dsus2 or      E  Csus2    G#   C#m
D#|----3---2---2---0---2---5----0-------0---3-------4----4-|
A#|----3---2---3---2---3---5----3-------0---3-------4----5-|
F#|----0---3---4---3---2---7----2-------1---5-------5----6-|
C#|----0---4---4---2---0---7----0-------2---5-------7----6-|
G#|----3---4---2---0---x---5----x-------2---3-------7----4-|
D#|----3---2---x---x---x---x----x-------0---x-------4----x-|

[Riff 1]
       D                 A                       F#
D#|----------2------ I-------------0---------|---------2-------|
A#|------3-----3---3-|-----2h3p2-----2---2---|-----2----2---2--|
F#|----2---2-----2---|---2-------2-----2-----|---3---3----3----|
C#|--0---------------|-----------------------|-----------------|
G#|------------------|-0---------------------|-----------------|
D#|------------------|-----------------------|-2---------------|

       G          A
D#|------------|-------------|
A#|------3-----|--------2----|
F#|---0--------|------2----2-|
C#|------------|-------------|
G#|------------|---0---------|
D#|-3-------3--|-------------|

   [Riff 2]
      Em
D#|---0----0----------------------| --------|
A#|---0----0----------------------| --------|
F#|---0----0----------------------| --------|
C#|---2----2----------------------| --------|
G#|---2----2----------------------| -s8-----|
D#|---0----0----2----0----2----1--| --------|

[INTRO] G  F#  Bm  A  Dsus2   (2x)

[VERSE 1] (with riff 1)
D            A
Our love is  like water
F#              G
Pinned down and abused
    A       D
For being strange

Our love is no other
Then me alone
For me all day

Our love is like water
Pinned down and abused, hey

[CHORUS]
G   F#   Bm   A     Dsus2
All over you, all over me
Dsus2
The sun, the fields, the sky
G    F#   Bm     A      Dsus2
I've often tried to hold the sea
Dsus2
The sun, the fields, the tide
G   F#  Bm   G  F#  Bm   E  A
Pay me now, lay me down  Oh yeah

[VERSE 2]
Our love is like water
Pinned down and abused
For being strange
Our love is no other
Then me alone
For me all day
Our love is like angels
Pinned down and abused, hey hey

[CHORUS] (same as first chorus, add Csus2 when noted)
All over you, all over me
The sun, the fields, the sky
I've often tried to hold the sea
The sun, the fields, the tide
Pay me now, lay me down
Lay me down, pay me now
Lay me down lay me down, yeah (Csus2)
All over you, all over me
All over you, all over me
Pay me now, lay me down
Lay me down, pay me now
Lay me down lay me down (Csus2)

[BRIDGE] (riff 2)

[VERSE 3]
Our love is like water
Pinned down and abused
For being strange
Our love is no other, oh
Then me alone, hey hey

[CHORUS]
All over you, all over me
The sun, the fields, the sky
I've often tried to hold the sea
The sun, the fields, the tide
Pay me now, lay me down
Lay me down, pay me now
Lay me down lay me down (Csus2)

[OUTTRO]
(A(V) G# C#m)3x   Dsus2 (V)
G F# Bm  Dsus2

            
            
Suggest correction
Creating personal tab
Creating personal tab
You can edit any tab online and save it as your Personal.

You can edit, replace or remove any tab part or add personal notes – all changes will be seen only by you.

Personal tabs can be accessed anytime from any device, even offline.
Learn more »
comments
print report bad tab
2 comments total.
0 reply
KickOutTheJhm 10 Jul 17, 2010 09:08 AM

5* tab
nice job

0 reply
cjl13 14 Sep 10, 2013 04:55 PM

Great tab
giving it 5 stars

guest
Wanna post a correction for this tab? Suggest correction