Oops, an error
Loading. Please wait.

All Over You bass

version 2
version 2

Whole song

Interactive

by Live
6,027 views 9 this week
1 commentread comment
1 2 3 4 5
x 8
add to favorites
×
Save as Personal and add changes to this tab that will be seen only by you. Learn more ›
×
You can save this tab as Personal to edit and correct it or add notes. All changes will be seen only by you. Learn more »
launch autoscroll
font size
0
reset
guitar tuner
backing track
0:00
0:00
edit
Autoscroll
slow
fast
+/-
esc
set tempo
stop
Author
Difficulty
-------------------------------------------------------------------------------
			     All over me - Live
-------------------------------------------------------------------------------

Tabbed By : Jelmer Portinga	
e-mail: Jelmerp@hotmail.com

Tuning: standard

Intro:
G|---------------------------------------------------10-11-10\5--------------|
D|---------------------------------------------------------------------------|
A|------111------44-444-444-444---------111------4*--------------------------|
E|22-11-----4444------------------22-11-----4444-----------------------------|

Verse:
Our love is like water, Pinned down and abused for being strange 
Our love is no other, Then me alone for me all day 
Our love is like water, Pinned down and abused, hey hey hey! 
G|--------------|   |--------------------------------------------------------|
D|--------------|   |--------------------------------------------------------|
A|4-----3-4-----|x2 |4-----3-4-----------------------------------------------|
E|---4------4---|   |---4---------444----------------------------------------|

Chores
All over you, all over me the sun, the fields, the sky 
I've often tried to hold the sea, the sun, the fields, the tide 
G|---------------------------------------------------------------------------|
D|---------------------------------------------------------------------------|
A|------111------44-444-444-444---------111------44-444-444-444--------------|
E|22-11-----4444------------------22-11-----4444-----------------------------|

Pay me now, lay me down, ooh 
G|---------------------------------------------------------------------------|
D|---------------------------------------------------------------------------|
A|------1111111111-------1111111111----4-6-----------------------------------|
E|22-11------------22-11-------------------6-4-------------------------------|

Verse:
Our love is like water, Pinned down and abused for being strange 
Our love is no other, Then me alone for me all day 
Our love is like angels, Pinned down and abused, hey hey hey! 
G|--------------|   |--------------------------------------------------------|
D|--------------|   |--------------------------------------------------------|
A|4-----3-4-----|x2 |4-----3-4-----------------------------------------------|
E|---4------4---|   |---4---------444----------------------------------------|

Chores:
All over you, all over me the sun, the fields, the sky 
I've often tried to hold the sea, the sun, the fields, the tide 
G|---------------------------------------------------------------------------|
D|---------------------------------------------------------------------------|
A|------111------44-444-444-444---------111------44-444-444-444--------------|
E|22-11-----4444------------------22-11-----4444-----------------------------|

Pay me now, lay me down 
Pay me now, pay me now 
Lay me down. Lay me down. Lay me down 
G|---------------------------------------------------------------------------|
D|---------------------------------------------------4444444444--------------|
A|------1111111111-------1111111111--------11111111--------------------------|
E|22-11------------22-11-------------22-11-----------------------------------|






Chores:
All over you, all over me 
All over you, all over me, yeah 
G|---------------------------------------------------------------------------|
D|---------------------------------------------------------------------------|
A|------111------4*---------------------111------4*--------------------------|
E|22-11-----4444------------------22-11-----4444-----------------------------|

Pay me now, lay me down, down 
Pay me now, pay me now 
Lay me down. Lay me down. Lay…
G|---------------------------------------------------------------------------|
D|---------------------------------------------------4444444444--------------|
A|------1111111111-------1111111111--------11111111--------------------------|
E|22-11------------22-11-------------22-11-----------------------------------|

Bridge:
G|---------|
D|---------|
A|---------| 6x
E|0-002010-|


Our love is like water 
Pinned down and abused for being strange 
Our love is no other 
Then me alone, hey hey hey!
G|---------------------------------------------------------------------------|
D|---------------------------------------------------------------------------|
A|--------------------------------------------333333334444-4-4---------------|
E|---------------------------------------------------------------------------|
 
Chores:
All over you, all over me the sun, the fields, the sky 
I've often tried to hold the sea, the sun, the fields, the tide 
G|---------------------------------------------------------------------------|
D|---------------------------------------------------------------------------|
A|------111------44-444-444-444---------111------44-444-444-444--------------|
E|22-11-----4444------------------22-11-----4444-----------------------------|

Pay me now, lay me down 
Pay me now, pay me now 
Lay me down. Lay me down. Lay me down 
G|---------------------------------------------------------------------------|
D|---------------------------------------------------4444444444--------------|
A|------1111111111-------1111111111--------11111111--------------------------|
E|22-11------------22-11-------------22-11-----------------------------------|

Outro
G|------5555555555-------5555555555--------55555555--------------------------|
D|66-55------------66-55-------------66-55-----------6666666666--------------|
A|---------------------------------------------------------------------------|
E|---------------------------------------------------------------------------|

G|---------------------------------------------------------------------------|
D|---------------------------------------------------------------------------|
A|------111-----4------------------------------------------------------------|
E|22-11-----444--------------------------------------------------------------|


===============================================================================
Suggest correction
Creating personal tab
Creating personal tab
You can edit any tab online and save it as your Personal.

You can edit, replace or remove any tab part or add personal notes – all changes will be seen only by you.

Personal tabs can be accessed anytime from any device, even offline.
Learn more »
comments
print report bad tab
1 comment total.
0 reply
phasesevenfold 213 Feb 11, 2013 12:54 PM

I don't think the verse is 100% right, I've been hitting the low F instead of that C on the A string and it sounds a lot more fluid

guest
You may want to rate the tab now too:
select rating
Wanna post a correction for this tab? Suggest correction