Oops, an error
Loading. Please wait.

I Alone tab

version 1
version 1

Whole song

Interactive

by Live
70,379 views 63 this week
4 commentsread comments
1 2 3 4 5
x 15
add to favorites
×
Save as Personal and add changes to this tab that will be seen only by you. Learn more ›
×
You can save this tab as Personal to edit and correct it or add notes. All changes will be seen only by you. Learn more »
launch autoscroll
font size
0
reset
how to read this tab
guitar tuner
backing track
0:00
0:00
edit
Autoscroll
slow
fast
+/-
esc
set tempo
stop
Author
----------------------------------------------------------------------------
                             I ALONE - Live
----------------------------------------------------------------------------
Tabbed by: Asprology21
Email: benremmert@hotmail.com

Tuning: Eb, Ab, Db, Gb, Bb, eb

[Verse]
eb|------------------------------0-0---0-0-----------------------------|
Bb|------------------------------0-0---0-0-----------------------------|
Gb|-----0--x---7--7---x--5---5-5-5-5-5-5-5-x-x-------------------------| 
Db|-----0--x---7--7---x--5—5-5-5-5-5-5-5-5-x-x-------------------------|
Ab|-----2--x---5--5---x--3—3-3-3-3-3-3-3-3-x-x-------------------------|
Eb|-----3--------------------------------------------------------------|(x8)
  It’s easier not to be wise…

eb|--------------------------------------------------------------------|
Bb|--------------------------------------------------------------------|
Gb|--4-----------------------4--------------0--------------------------|
Db|--4-ring------------------4-ring---------0--------------------------|
Ab|--2-----------------------2--------------2\-------------------------|
Eb|-----------------------------------------3\-------------------------|
  … Leave you there by yourself chained to fate

[Chorus]
eb|--------------------------------------------------------------------|
Bb|--0-0-x--4----------------------------------------------------------|
Gb|--1-1-x--4--0-0---x-----------6--6----6-6---------------------------|
Db|--2-2-x--4--0-0---x-----------7--7----7-7---------------------------|
Ab|--2-2-x--2--2-2---x-----------7--7----7-7---------------------------|
Eb|--0-0-------3-3---------------5--5----5-5---------------------------|
       I alone love you…        Fear is not the end of this

[Bridge]
Eb|---------------------------------------------------------------------|
Bb|-0---------------------------0---------------------------------------|
Gb|-4---------------------------4---------------------------------------|
Db|-4--FEEDBACK-----------------4---FEEDBACK----------------------------|
Ab|-2--FEEDBACK-----------------2---FEEDBACK----------------------------|
Eb|---------------------------------------------------------------------|
    Oh now, we took it…

Well, That’s it. Very simple, but powerful. With the bridge, there’s heaps of room to 
around, and very hard to mess up.





************************************

| /  slide up
| \  slide down
| h  hammer-on
| p  pull-off
| ~  vibrato
| +  harmonic
| x  Mute note

************************************
Suggest correction
Creating personal tab
Creating personal tab
You can edit any tab online and save it as your Personal.

You can edit, replace or remove any tab part or add personal notes – all changes will be seen only by you.

Personal tabs can be accessed anytime from any device, even offline.
Learn more »
comments
print report bad tab
4 comments total. Showing first comments.
0 reply
af2w131f 20 Mar 28, 2006 10:29 PM

Tab is terrible, atleast watch a live video of them playing the song....

0 reply
live_fan 501 Jan 25, 2007 09:24 PM

I have to disagree there. Play this tab along with the recording. Sounds pretty damn close to me. I actually prefer this version over the others, regardless of how they play it at shows. There are a few things I would change if I were to tab this myself. Perhaps I will in the near future. Anyway, decent job!

0 reply
E.A.G.L.E. 51 Sep 27, 2007 01:49 PM

I agree it is definitly the better ofthe two

guest
You may want to rate the tab now too:
select rating
Wanna post a correction for this tab? Suggest correction