Oops, an error
Loading. Please wait.

Night Of Nights Tab

by Live
3,771 views 3 this week
no commentswrite comment
1 2 3 4 5
please rate
add to favorites
launch autoscroll
font size
0
reset
how to read this tab
guitar tuner
Autoscroll
slow
fast
+/-
esc
set tempo
stop
Help us to improve Ultimate-Guitar.com Take our survey!
×
Contributor
live_fan 630
Night Of Nights

Performed By: LIVE
From the Album: "Songs from Black Mountain"
Lyrics & Music Written By: Edward Kowalczyk

Comments, questions, corrections, requests welcome


Eb(D#) Tuning (Eb Ab Db Gb Bb eb) Low to High
              (D# G# C# F# A# d#) Low to High


Chords used in order of appearence
(Low to High):

Gb  | 2 4 4 3 2 2

Bm  | 2 2 4 4 3 2

G5  | 3 5 5 x x x

B5  | x 2 4 4 x x

A5  | x 0 2 2 x x
*A5 | 5 7 7 x x x

D5  | x 5 7 7 x x

G   | 3 5 5 4 3 3


Intro:
Note: This proved a little difficult for me to tab, and may be slightly incorrect.
It seems like I may have too many notes tabbed than what is actually played
However, when I play it, it sounds fine.
(Played fast)

eb|--------------------------------0-----------------------|
Bb|-----------------3-----------------3-----3--------------|
Gb|--------4--------------4--------------------2-----4-----|
Db|-----4--------4-----------4-----------------------------|
Ab|--2--------2--------2--------2--------2--------2--------|
Eb|--------------------------------------------------------|


     ------------------------------0-----------------------|
     ---------------3-----------------3-----3--------------|
     ------4--------------4--------------------2-----4--4--|
     ---4--------4-----------4-----------------------------|
     0--------0--------0--------0--------0--------0--------|
     ------------------------------------------------------|


(Play twice, then into verse 1)


Verse 1:
Note: Guitar 1 plays Intro Part over verse until chord change
      Guitar 2 strums the corresponding chords as shown
      Listen to the recording to get how its played

        Gb
Tonight,    the road has no end

Bm                                G5        G5*
    And you are (you are) my only friend

(* Downstrum 8 times and lead into Chorus 1)


Chorus 1:

B5    A5                     D5
Ohh.....   So I give you my love. It's all that I have to

   B5      A5                        D5
gi-ove. Ohh.....   So I give you my love

D5(once)
    I give you my love


Verse 2:
Note: Guitar 1 plays Intro Part over verse until chord change
      Guitar 2 strums the corresponding chords as shown
      Listen to the recording to get how its played

Bm                                   Gb
    Tonight (tonight), the answer is clear

                               G5      G5*
We are (we are), so far and so near

(* Downstrum 8 times and lead into Chorus 2)


Chorus 2:

B5    A5                     D5
Ohh.....   So I give you my love. It's all that I have to

   B5      A5                        G5
gi-ove. Ohh.....   So I give you my love

G5
    And the life I have left to

   D5        *A5                      G5
li-ove. Ohh.....    So I give you my love

                           D5
It's all that I have to gi-ove

                          *
    *A5                   B5                  B5
Ohh.....   I give you my love, I give you my love

(* Upon playing the first B5, a second guitar plays this and leads into Bridge)

Note: This is difficult to pick out on the recording
      but if you listen closely (preferrably with headphones)
      you will be able to hear it

eb|--2--------2--------4--------4--------|
Bb|-----3--0-----3--0-----3--0-----3--0--|
Gb|--------------------------------------|
Db|--------------------------------------|
Ab|--------------------------------------|
Eb|--------------------------------------|


Bridge:
(Split into 2 parts. Part one is guitar 1 playing power chords
                     Part two is guitar 2 playing a lead part)


Part 1:

              B5
I give you my love, like a diamond

    B5
She never stops shining

      B5
She's always alive

          B5
And she's walking with me


Part 2:
(Played twice)

                                          2nd time only
eb|--2--------2--------4--------4--------|--(4)/7~~~~--|
Bb|-----3--0-----3--0-----3--0-----3--0--|-------------|
Gb|--------------------------------------|-------------|
Db|--------------------------------------|-------------|
Ab|--------------------------------------|-------------|
Eb|--------------------------------------|-------------|


(Repeat Intro)


Verse 3:
Note: Play Intro Part over verse until chord change
      Listen to the recording to get how its played


Tonight (tonight), we stand as one heart

                                    G
One mind (one mind), nothing left behind


Chorus 3:

B5    A5                     D5
Ohh.....   So I give you my love. It's all that I have to

   B5      A5                        G5
gi-ove. Ohh.....   So I give you my love

G5
    And the life I have left to

   D5         A5                      D5
li-ove. Ohh.....    So I give you my love


I give it!

D5     A5                 D5
Ohh.....    I give you my love

              D5
I give you my love

D5(abrupt stop)
    I give you my love


Outro:
(Played fast at first, and gradually slower until end)


eb|--------------------------------0-----------------------|
Bb|-----------------3-----------------3-----3--------------|
Gb|--------4--------------4--------------------2-----4-----|
Db|-----4--------4-----------4-----------------------------|
Ab|--2--------2--------2--------2--------2--------2--------|
Eb|--------------------------------------------------------|


   --------------------------0-------|
   -----------------3-------------3--|
   --------4-----------4-------------|
   -----4--------4--------4----------|
   --0--------0----------------------|
   ----------------------------------|


END
comments
We did not receive enough feedback on this tab! Please rate:
print report bad tab
1 2 3 4 5
I want to post or [tab]
guest
You may want to rate the tab now too:
select rating
Please do not post tabs as comments. Select "correction" instead!