Oops, an error
Loading. Please wait.

Overcome Tab

version 1
version 1

Intro

  • No capo or special tuning needed for this one.

Whole song

Interactive

by Live
13 views 1 this week
no commentswrite comment
1 2 3 4 5
3 more votes to show rating
add to favorites
launch autoscroll
font size
0
reset
how to read this tab
guitar tuner
Autoscroll
slow
fast
+/-
esc
set tempo
stop
Help us to improve Ultimate-Guitar.com Take our survey!
×
Author
About this tab version
No capo or special tuning needed for this one. Was this info helpful? Yes No
[Intro]

e|------7---7-----7---10---9---7---5---5---|---5---7---9---7------------------|
B|-----7--------7--------------------------|---------------9---10---9---7-----|
G|----7-------7-------11---9---7---7---6---|---6----------------------------9-|
D|-----------------------------------------|----------------------------------|
A|-----------------------------------------|----------------------------------|
E|---7----------------10---------------5---|---------------0------------------|

e|---7-----------7-------7---10---9---7---5---5---|---5-----------------------|
B|---7-----------------7--------------------------|-----9-7-9-----------------|
G|-------7-----------7-------11---9---7---7---6---|-------------9-------------|
D|-----------9------------------------------------|---------------------------|
A|------------------------------------------------|---------------------------|
E|---7-----------------------10---------------5---|---------------------------|

Suggest correction
Give kudos to tab author, rate the tab!
1 2 3 4 5
comments
print report bad tab
guest
You may want to rate the tab now too:
select rating
Wanna post a correction for this tab? Suggest correction