Oops, an error
Loading. Please wait.

Pain Lies On The Riverside Bass Tab

version 1
version 1

Whole song

Interactive

by Live
4,955 views 6 this week
2 commentsread comments
1 2 3 4 5
accurate
x 4
add to favorites
launch autoscroll
font size
0
reset
guitar tuner
Tab Pro tools
  • play this tab
  • loop segment
  • change instrument
  • show fretboard
  • metronome
×
Best way to learn
"Pain Lies On The Riverside"
Autoscroll
slow
fast
+/-
esc
set tempo
stop
#----------------------------------PLEASE NOTE---------------------------------#
#This file is the author's own work and represents their interpretation of the #
#song. You may only use this file for private study, scholarship, or research. #
#------------------------------------------------------------------------------##
Date: Tue, 01 Aug 1995 14:09:33 +0600
From: acanterb@vt.edu (Gumbee)
Subject: "Pain Lies On The Riverside" BTAB (Live)

"Pain Lies On The Riverside" by Live from the Mental Jewelry  
Tabbed by R. Allen Canterbury

I'm not sure about the chorus or bridge parts...what I have written is a
very simple way to play it (the roots of the chords basically...) so do 
whatever you like in that part.  I get the feeling this song played 1/2 step
below standard tuning (Eb,Ab,Db,Gb) since Live usually tunes down...but you
can play it the way I have it written and it sounds cool.  I indicate the
verse riff as being played slap-style.  You can use a pick and turn the highs
up if you like to get that slap-like sound.  The verse is played quickly so
if your slap technique is lagging or a bit slow, it'd be hard to play w/o a
pick.  Hey...it's just notes.  You play them as you like!


  
  Gtr. Intro      Intro lick           

G:---------------|--------------------|
D:--|========|---|--11h13-------------|
A:---------------|--------11h13-------|
E:---------------|--------------11-\--|



  Verse (main) riff
 |~~~~~~~~~~~~~~~~~~~~~~~~~~~~~~~~~~~~~~~~~~~~~~
    T T P P P    T   P    T T P P P    T   P
G:---------------------------------------------|
D:------6-4-4h6------4h6------6-4-4h6------4h6-|
A:---------------4h6-------------------4h6-----|
E:--4-4-------------------4-4------------------|

  
  ~~~~~~~~~~~~~~~~~~~~~~~~~~~~~~~~~~~~~~~~~~~~~~|
   T T P P P    P   P    T T P P P    P   P
G:-----6-4-4h6------4h6------6-4-4h6------4h6---|
D:--------------4h6-------------------4h6-------|
A:-4-4-------------------4-4--------------------|
E:----------------------------------------------|


   Bridge Riff                                  Chorus Riff
  |~~~~~~~~~~~~~~~~~~~~~~~~~~~~~~~~~~~~~~~~~~  |~~~~~~~~~~~~~~~~~~~~~~
G:--------------------------------------------|-------------9-----11---|
D:--2------4------6-----6-4h6-4h6-\-----------|*----------------------*|
A:--------------------------------------------|*-6--6-6--7-----9------*|
E:-----------------------------------2h4-2h4--|------------------------|
                                               (..So put your feet in  
                                                the water....)
"Any similarities between this transcription and the actual song is purely
coincidental"
+----------------------------------------+---------------------------------+ 
|  ____    ____                          |         acanterb@vt.edu         |
| (    `--'  .-'               _T_T_T_T_ |  ___                 __         |
| |8| O  O  |||||||||||||||||||[o o o o/ | /   \  |   | |\  /| |  | \   /  |
| (__,--.____\                 `~~~`--'  | |  ___ |   | | \/ | |--+. \ /   |
|                                        | \____| |___| |    | |___|  |    |
|    Bassist for Division by Zero        |                                 |
|                                                                          |
|   Check out the Web Page! http://sfbox.vt.edu:10021/R/rconnell/band.html |
|                                                                          |
+----------------------------------------+---------------------------------+



comments
print report bad tab
2 comments total.
0 reply
auditek wrote on June 17 2007, 04:20 am

Sounds great. Nice work on the verse riff.
Chorus/Bridge is fine

0 reply
fuisk wrote on August 7 2012, 11:48 pm

Intro:

Gb-10p9--------------
Db------10p9---------
Ab-----------10p8----
Eb----------------10/

I want to post or [tab]
guest
You may want to rate the tab now too:
select rating
Please do not post tabs as comments. Select "correction" instead!