Oops, an error
Loading. Please wait.

Turn My Head Chords

version 1
version 1

Whole song

Interactive

by Live
9,802 views 18 this week
no commentswrite comment
1 2 3 4 5
please rate
add to favorites
launch autoscroll
font size
0
reset
transpose
0
reset
display chords
guitar tuner
Autoscroll
slow
fast
+/-
esc
set tempo
stop
Help us to improve Ultimate-Guitar.com Take our survey!
×
Live-Turn My Head 
Song: Turn My Head
Band: +Live+
Album: Secret Samadhi
Tabbed by: viper342@juno.com
http://www.geocities.com/SunsetStrip/Towers/7371/

 C                   Am
e|------------------0-----|-------------3-0p-|
B|-----1---1h3----3-1-|-----1-0-1--------|
G|-------0---------------|---------------------|
D|---2-------------------|---2----------------|
A|-3---------------------|-0------------------|
E|------------------------|---------------------|

  Em           F
e|----------0p------|----------1p------|
B|-------0-----0----|-------1-----1---|   REPEAT
G|----------------0-|----------------2-|  
D|-----2------------|-----3------------|   h - hammer
A|---2--------------|---3---------------|   p - pause
E|-0----------------|-1-----------------|




Verse:

  C - G - E - F

Chorus: ("Turn my head... Turn my head")

  C - Am - G - F

Bridge: ("We came to love you... ")

  E - F
  E - F
  E - F - G

Solo: (?- any ideas) [played over chorus]

End on C

  
Song Composition:


(INTRO:)
Anyone, caught in your mystery
Keep it angry
Keep it whispy
I've fallen down
Drunk on your juices

(CHORUS: C - Am - G - F)
Turn my head
Turn my head
It's aimed at you

(VERSE: C - G - E - F)
Funky temple
Your dress is torn to shreds
Your eyes are crazy
I bowed to save my head and
I can't forget you
But I can't remember

(CHORUS: C - Am - G - F)
Turn my head
Turn my head
It's aimed at you

(BRIDGE: E - F, E - F, E - F - G)
Oh no,
We came to love you all day
These bastards are leavin'
Somebody's got to stay
Whatever we called you
It's just a name
Just a name

(SOLO: Played over chorus)

(CHORUS: C - Am - G - F)
 - End song on C

CHORDS USED: (as they would be in standard tuning)
 C X-3-2-0-1-0
 G 3-2-0-0-0-3
 E 0-2-2-1-0-0
 F 1-3-3-2-1-1
Am 0-0-2-2-1-0









Suggest correction
What's this?
You can suggest a correction to this tab. Community and Mods will review your correction and vote to approve or reject it.
comments
We did not receive enough feedback on this tab! Please rate:
print report bad tab
1 2 3 4 5
guest
You may want to rate the tab now too:
select rating
Please do not post tabs as comments. Select "correction" instead!