Oops, an error
Loading. Please wait.

Turn My Head Tab

version 1
version 1

Solo

Whole song

Interactive

by Live
12,394 views 18 this week
1 commentread comment
1 2 3 4 5
excellent!
x 11
add to favorites
launch autoscroll
font size
0
reset
how to read this tab
guitar tuner
Tab Pro tools
  • play this tab
  • loop segment
  • change instrument
  • show fretboard
  • metronome
Autoscroll
slow
fast
+/-
esc
set tempo
stop
Contributor
       turn my head tab by live



 0ne guitar                                             steve...:)

|------------0------|-------------3-0---|
|-----1--------1----|------1-0h1--------|
|----------------0--|-------------------|
|---2-----2---------|-------------------|
|-3-----3-----------|---2---------------|
|-------------------|-3-----------------|

|--------0----------|--------1----------|
|-----------0-------|-----------1-------|
|--------------0----|--------------0----|
|-----2-------------|-----3-------------|
|---2--------2------|---3---------------|
|-0-----------------|-1-----------------|

|--------------0-----|-------------3-0--|
|-----1----1h3---3p1-|------1-0h1-------|
|--------------------|------------------|
|---2----------------|------------------|
|-3-----3------------|---2--------------|
|--------------------|-3----------------|

|---------0----------|--------1---------|
|------------0-------|-----------1------|
|---------------0----|--------------0---|
|-----2--------------|-----3------------|
|---2----------------|---3--------------|
|-0------------------|-1----------------|

vocal +  two guitar

|--------------------|--------------3-0-|
|----1-1-------------|-----3--1-0h1-----|
|---0---0-----0------|----0-------------|
|--2--------2--------|---0--------------|
|-3------3-----------|--2---------------|
|--------------------|-3----------------|
                                                                              
|------0-0-----------|------1--1--------|
|-----0---0----------|-----1------1-----|
|----0-----0---------|----2----------0--|
|---2--------2-------|---3--------------|
|--2----------2------|--3---------------|
|-0------------------|-1----------------|

|-----0-------0------|--------------3-0-|
|----1----1h3---3p1--|-----3--1-0h1-----|
|---0----------------|----0-------------|
|--2-----------------|---0--------------|
|-3-----3------------|--2---------------|
|--------------------|-3----------------|

|------0-0-----------|------1--1--------|
|-----0---0----------|-----1-----1------|
|----0-----0---------|----2--------0----|
|---2--------2-------|---3--------------|
|--2----------2------|--3---------------|
|-0------------------|-1----------------|

|--------------------|--------------3-0-|
|----1-1-------------|-----3--1-0h1-----|
|---0---0-----0------|----0-------------|
|--2--------2--------|---0--------------|
|-3------3-----------|--2---------------|
|--------------------|-3----------------|
                                                                              
|------0-0-----------|------1-----------|
|-----0---0----------|-----1------------|
|----0-----0---------|----2-------------|
|---2--------2-------|---3--------------|
|--2----------2------|--3---------------|
|-0------------------|-1----------------|

|------1------0---------0----0-----0----|
|-----1------1---------1----1-----0-----|
|----1------0---------0----0-----0------|
|---3------2---------2----2-----0-------|
|--3------3---------3----3-----2--------|
|-1-------------------------------------|

|-----0------------0----------3--------1-|
|----1------------1----------3--------1--|
|---2------------2----------0--------2---|
|--2------------2----------0--------3----|
|-0------------0----------2--------3-----|
|------------------------3--------1------|

|-----0-----0---------------|
|----1--------1--0h1--------|
|---0-----0-----------------|
|--2------------------------|
|-3-------------------------|
|---------------------------|

|--------------------|--------------3-0-|
|----1-1-------------|-----3--1-0h1-----|
|---0---0-----0------|----0-------------|
|--2--------2--------|---0--------------|
|-3------3-----------|--2---------------|
|--------------------|-3----------------|
                                                                              
|------0-0-----------|------1--1--------|
|-----0---0----------|-----1------1-----|
|----0-----0---------|----2----------0--|
|---2--------2-------|---3--------------|
|--2----------2------|--3---------------|
|-0------------------|-1----------------|

|-----0-------0------|--------------3-0-|
|----1----1h3---3p1--|-----3--1-0h1-----|
|---0----------------|----0-------------|
|--2-----------------|---0--------------|
|-3-----3------------|--2---------------|
|--------------------|-3----------------|

|------0-0-----------|------1--1--------|
|-----0---0----------|-----1-----1------|
|----0-----0---------|----2---------0---|
|---2--------2-------|---3--------------|
|--2----------2------|--3---------------|
|-0------------------|-1----------------|

|--------------------|--------------3-0-|
|----1-1-------------|-----3--1-0h1-----|
|---0---0-----0------|----0-------------|
|--2--------2--------|---0--------------|
|-3------3-----------|--2---------------|
|--------------------|-3----------------|
                                                                              
|------0-0-----------|------1-----------|
|-----0---0----------|-----1------------|
|----0-----0---------|----2-------------|
|---2--------2-------|---3--------------|
|--2----------2------|--3---------------|
|-0------------------|-1----------------|

|------1------0---------0----0-----0----|
|-----1------1---------1----1-----0-----|
|----1------0---------0----0-----0------|
|---3------2---------2----2-----0-------|
|--3------3---------3----3-----2--------|
|-1-------------------------------------|

|-----0------------0----------3--------1-|
|----1------------1----------3--------1--|
|---2------------2----------0--------2---|
|--2------------2----------0--------3----|
|-0------------0----------2--------3-----|
|------------------------3--------1------|

|------------0---------0----0-----0----|
|-----------1---------1----1-----0-----|
|----------0---------0----0-----0------|
|---------2---------2----2-----0-------|
|--------3---------3----3-----2--------|
|--------------------------------------|

|-----0------------0----------3--------1-----1-|
|----1------------1----------3--------1-----1--|
|---2------------2----------0--------2-----2---|
|--2------------2----------0--------3-----3----|
|-0------------0----------2--------3-----3-----|
|------------------------3--------1-----1------|


    part 2

|------0-----------1-|
|-----0-----------1--|
|----1-----------2---| x 3
|---2-----------3----|
|--2-----------3-----|
|-0-----------1------|

|-----3-----3-----|
|----3--------3---|
|---0----0------0-|
|--0--------------|
|-2---------------|
|3----------------|

        solo

















steve,,,,,,,,        pompom@sympatico.ca           pompom020366@hotmail.com
comments
print report bad tab
1 comment total.
0 reply
Huskee wrote on December 15 2014, 06:26 am

Where's the solo?

I want to post or [tab]
guest
You may want to rate the tab now too:
select rating
Please do not post tabs as comments. Select "correction" instead!