Oops, an error
Loading. Please wait.

Fearless tab

1,231 views 30 this week
no commentswrite comment
1 2 3 4 5
1 last vote to show rating
add to favorites
×
Save as Personal and add changes to this tab that will be seen only by you. Learn more ›
×
You can save this tab as Personal to edit and correct it or add notes. All changes will be seen only by you. Learn more »
launch autoscroll
font size
0
reset
how to read this tab
guitar tuner
edit
Autoscroll
slow
fast
+/-
esc
set tempo
stop
Author
Difficulty
Fearless    transcribed by: Rodino Sim of SFC CC3
(Effects use- analog Delay 7th  level ung delay.  naka Zoom G1XN kasi ako setting nya C7 
then add Analog delay 7th level)

Intro

  B                        E
e|-9------9-------9---|-9------9-----9----|
B|--12------12-----12-|---12-----12----12-|
G|-----11-----11------|------9------9-----|
D|--------------------|-------------------|
A|--------------------|-------------------| 2x
E|--------------------|-------------------|
           2x                 2x      

Verse

  B                                         E
e|-9------9-------9---9------9-----9---|-9------9-----9----|
B|--12------12-----12---12----12----12-|---12-----12----12-|
G|-----11-----11-----------11----11----|------9------9-----|
D|-------------------------------------|-------------------|
A|-------------------------------------|-------------------| 
E|-------------------------------------|-------------------|


    G#m       F#           
e|--------11-------9--|
B|-----12-------12----|
G|--13-------11-------|
D|--------------------|
A|--------------------| 
E|--------------------|
 
Pre-chorus

    E          E           
e|--------9-|-------9--|
B|-----12---|----12----|
G|--11------|-11-------|
D|----------|----------|
A|----------|----------| 
E|----------|----------|





Chorus
  B                                         E
e|---9------9------------9------9-------|--9-----9----------|
B|----12------12--12------12-----12--12-|---12----12-12-----|
G|-11-----11----11----11------11---11---|-9-----9---9-------|
D|--------------------------------------|-------------------|
A|--------------------------------------|-------------------| 
E|--------------------------------------|-------------------|

    G#m       F#           
e|--------11-------9--|
B|-----12-------12----|
G|--13-------11-------|
D|--------------------|
A|--------------------| 
E|--------------------|
 
Repeat all

Guitar Solo 
  B                                               E
e|-------------------------------------------|-------------------|
B|-------------------------------------------|--12p11------------|
G|-------------------------------------------|-------11----------|
D|------9h11-11-11s9-9s8---------------------|-----------9p8-----|
A|--s11-------------------9s11--11---9-------|--------------9----| 
E|-------------------------------------11----|-------------------|  
G#m-F#
e|-------------------------------------------|
B|-------------------------------------------|
G|-------------------------------------------|
D|---9s11-11s13-14-13—11s9s11-11-------------|
A|-------------------------------------------|
E|-------------------------------------------|

    B                                   E
e|------------------------------------|-------------------|
B|------------------------------------|-------------------|
G|--1111111111-------------8h9s11-----|--8h9p8------------|
D|--x-x-x-x-x---------9h11------------|--------9s11-------|
A|--9-9-9-9-9----9h11-----------------|-------------------| 
E|------------------------------------|-------------------|
G#m-F#
e|----------7—7h9s11------14-14h16s19--------|
B|----7-8h9------------s16-------------------|
G|-s8----------------------------------------|
D|-------------------------------------------|
A|-------------------------------------------|
E|-------------------------------------------|

Bridge

 (papasok sa pang 3rd na “in Your name”)
e|---9-----12---------11---------14-------14-|
B|----12---------12---------12--------12-----|
G|-11----11----11---11----11---11---11--11---|
D|-------------------------------------------| 8x
A|-------------------------------------------| 
E|-------------------------------------------|

Last 2 Chorus/Outro
(Enters at A heart so selfless)

e|-------------------------------------------------------|
B|-------------------------------------------------------|
G|-99999999999999-1313131313131313-1616161615151515------|
D|-xxxxxxxxxxxxxx-x-x-x-x-x-x-x-x--x-x-x-x-x-x-x-x-------|
A|-77777777777777-1111111111111111-1414141413131313------|
E|-------------------------------------------------------|

e|----------------------------------------------------------------------|
B|----------------------------------------------------------------------|
G|-88888888888888-99999999999999-1313131313131313-1616161615151515------|
D|-xxxxxxxxxxxxxx-xxxxxxxxxxxxxx-x-x-x-x-x-x-x-x--x-x-x-x-x-x-x-x-------|
A|-66666666666666-77777777777777-1111111111111111-1414141413131313------|
E|----------------------------------------------------------------------|

Then last chorus

e|----------------------------------------------------------------------|
B|----------------------------------------------------------------------|
G|-88888888888888-99999999999999-1313131313131313-1616161615151515------|
D|-xxxxxxxxxxxxxx-xxxxxxxxxxxxxx-x-x-x-x-x-x-x-x--x-x-x-x-x-x-x-x-------|
A|-66666666666666-77777777777777-1111111111111111-1414141413131313------|
E|----------------------------------------------------------------------|
                                                                                           2x

Tab legend
Slide- s
Hammer- h
Pull-off – p
Dead note – x

            
            
Suggest correction
Creating personal tab
Creating personal tab
You can edit any tab online and save it as your Personal.

You can edit, replace or remove any tab part or add personal notes – all changes will be seen only by you.

Personal tabs can be accessed anytime from any device, even offline.
Learn more »
Give kudos to tab author, rate the tab!
1 2 3 4 5
comments
print report bad tab
guest
You may want to rate the tab now too:
select rating
Wanna post a correction for this tab? Suggest correction