Oops, an error
Loading. Please wait.

For You Almighty tab

658 views 6 this week
no commentswrite comment
1 2 3 4 5
3 more votes to show rating
add to favorites
×
Save as Personal and add changes to this tab that will be seen only by you. Learn more ›
×
You can save this tab as Personal to edit and correct it or add notes. All changes will be seen only by you. Learn more »
launch autoscroll
font size
0
reset
how to read this tab
guitar tuner
edit
Autoscroll
slow
fast
+/-
esc
set tempo
stop
Author
Difficulty
For You Almighty
transcribed by: Rodino Sim of SFC CC3
Words and Music by: Eric Fortaleza

1stIntro

Guitar 1
Riff 1                                                                                    Riff 2
E|-------------------------999---------------|-----------------------------------|       |----------|
B|-10-10-10-9-9-9-10-10-10----10-10-10-9-9-9-|-10-10-10-9-9-9--------------------|       |-12-12s14-|
G|-------------------------------------------|---------------7-7-7-9-9-9--11-11--|2x     |----------|
D|-------------------------------------------|-----------------------------------|   then|----------| 
A|-------------------------------------------|-----------------------------------|       |----------|
E|-------------------------------------------|-----------------------------------|       |----------|

Guitar 2
Riff 1                                                                       Riff 2      
E|------------------------------------|-----------------------------|       |----------|----|
B|------------------------------------|-----------------------------|       |----------|----|
G|-------------------6-6-6------------|-----------------------------|2x     |----------|----|
D|-7-7-7-6-6-6-7-7-7------7-7-7-6-6-6-|-7-7-7-6-6-6-----------------|   then|-9-9s11---|----|
A|------------------------------------|-------------5-5-5-7-7-7-9-9-|       |----------|-7v-|
E|------------------------------------|-----------------------------|       |----------|----|

1st Verse

Guitar 1
e|----------------------------------|
B|----------------------------------|
G|-----------------777-777-777-777--|
D|-444-444-666-666-777-777-777-777--|
A|-444-444-666-666-555-555-555-555--|
E|-222-222-444-444------------------|
PM|..  ..  ..  ..  ..  ..  ..  ..|
then
E|------------------------------------|-----------------------------|       |----------|
B|------------------------------------|-----------------------------|       |----------|
G|-------------------6-6-6------------|-----------------------------|2x     |----------|
D|-7-7-7-6-6-6-7-7-7------7-7-7-6-6-6-|-7-7-7-6-6-6-----------------|   then|-9-9s11---|
A|------------------------------------|-------------5-5-5-7-7-7-9-9-|       |----------|
E|------------------------------------|-----------------------------|       |----------|

Guitar 2
e|----------------------------------|
B|----------------------------------|
G|-----------------777-777-777-777--|
D|-444-444-666-666-777-777-777-777--|
A|-444-444-666-666-555-555-555-555--|
E|-222-222-444-444------------------|
PM|..  ..  ..  ..  ..  ..  ..  ..|
then
e|-----------------------|
B|-----------------------|
G|-----------77777777----|
D|-4444-6666-77777777-4--|
A|-4444-6666-55555555-4--|
E|-2222-4444----------2--|




Chorus
Guitar 1
e|---------------------------------------------------------------|
B|---------------------------------------------------------------|
G|-1111111111111111-99999999--1414141414141414-1818181816161616--|
D|-x-x-x-x-x-x-x-x--xxxxxxxxx-x-x-x-x-x-x-x-x--x-x-x-x-x-x-x-----|
A|-9-9-9-9-9-9-9-9--77777777--1212121212121212-1616161614141414--|
E|---------------------------------------------------------------|
then
Guitar 1
Riff 1                                                                                    Riff 2
E|-------------------------999---------------|-----------------------------------|       |----------|
B|-10-10-10-9-9-9-10-10-10----10-10-10-9-9-9-|-10-10-10-9-9-9--------------------|       |-12-12s14-|
G|-------------------------------------------|---------------7-7-7-9-9-9--11-11--|2x     |----------|
D|-------------------------------------------|-----------------------------------|   then|----------| 
A|-------------------------------------------|-----------------------------------|       |----------|
E|-------------------------------------------|-----------------------------------|       |----------|


Guitar 2
e|------------------------------------------|     |---|
B|------------------------------------------|     |---|
G|-44444444----------77777777-111111119999--|     |-7-|
D|-44444444-77777777-77777777-111111119999--|2x   |-7-|let it ring
A|-22222222-77777777-55555555-9-9-9-9-7777--|     |-5-|
E|----------55555555------------------------|     |---|

2nd Intro
Guitar 1
E|-------------------------999---------------|-----------------------------------|       |----------|
B|-10-10-10-9-9-9-10-10-10----10-10-10-9-9-9-|-10-10-10-9-9-9--------------------|       |-12-12s14-|
G|-------------------------------------------|---------------7-7-7-9-9-9--11-11--|2x     |----------|
D|-------------------------------------------|-----------------------------------|   then|----------| 
A|-------------------------------------------|-----------------------------------|       |----------|
E|-------------------------------------------|-----------------------------------|       |----------|

Guitar 2
Riff 1                                                                            
E|------------------------------------|-----------------------------|       
B|------------------------------------|-----------------------------|       
G|-------------------6-6-6------------|-----------------------------|2x     
D|-7-7-7-6-6-6-7-7-7------7-7-7-6-6-6-|-7-7-7-6-6-6-----------------|   
A|------------------------------------|-------------5-5-5-7-7-7-9-9-|       
E|------------------------------------|-----------------------------|      

2nd Verse

Guitar 1
e|----------------------------------|
B|----------------------------------|
G|-----------------777-777-777-777--|
D|-444-444-666-666-777-777-777-777--|
A|-444-444-666-666-555-555-555-555--|
E|-222-222-444-444------------------|
PM|..  ..  ..  ..  ..  ..  ..  ..|
then
E|------------------------------------|-----------------------------|       |----------|
B|------------------------------------|-----------------------------|       |----------|
G|-------------------6-6-6------------|-----------------------------|2x     |----------|
D|-7-7-7-6-6-6-7-7-7------7-7-7-6-6-6-|-7-7-7-6-6-6-----------------|   then|-9-9s11---|
A|------------------------------------|-------------5-5-5-7-7-7-9-9-|       |----------|
E|------------------------------------|-----------------------------|       |----------|

Guitar 2
e|----------------------------------|
B|----------------------------------|
G|-----------------777-777-777-777--|
D|-444-444-666-666-777-777-777-777--|
A|-444-444-666-666-555-555-555-555--|
E|-222-222-444-444------------------|
PM|..  ..  ..  ..  ..  ..  ..  ..|
Then
(ung chords dito parang tumatalon)
e|-----------------------|
B|-----------------------|
G|-----------77777777----|just listen to the song for the timing
D|-4444-6666-77777777----|
A|-4444-6666-55555555----|
E|-2222-4444-------------|

Repeat Chorus

Bridge

Guitar 1 (enters at 3rd “mighty king of zion”)
E|------------------------------------|-----------------------------------|       
B|-10-9---10-9---10-9---10-9---10-9---|-12-9---12-9---12-9---12-9---12-9--|       
G|------9------9------9------9------9-|------9------9------9------9-----9-|2x     
D|------------------------------------|-----------------------------------|   
A|------------------------------------|-----------------------------------|       
E|------------------------------------|-----------------------------------|       
then
E|------------------------------------|-----------------------------------|       
B|-10-9---12-9---10-9---12-9---10-9---|-14-9---12-9---14-9---12-9---14-9--|       
G|------9------9------9------9------9-|------9------9------9------9-----9-|2x     
D|------------------------------------|-----------------------------------|   
A|------------------------------------|-----------------------------------|       
E|------------------------------------|-----------------------------------|       

Guitar 2
(Bagsak-bagsak lang yung chords)
e|-5--7--2--4--|
B|-5--7--2--4--|
G|-7--9--2--4--| 
D|-7--9--4--6--|
A|-5--7--4--6--|
E|-------2--4--|
then
e|-5-5--7-7--2----4--|
B|-5--5-7--7-2-2--4--|
G|-7----9----2--2-4--| just listen to the song for the timing
D|-7----9----4----6--|
A|-5----7----4----6--|
E|-----------2----4--|
Then
(strum the chords)
e|-------------|
B|-------------|  (dito na yung may lead)
G|-7--9--------| 
D|-7--9--4--6--| 2x
A|-5--7--4--6--|
E|-------2--4--|

Last 2 Chorus

Guitar 1
“all my strength”   “hear my song”   “take control of me
e|-------------||-------------||-----17------|
B|-10b---10v---||-12b-----10--||-17b----17b--|
G|-------------||----9h11-----||-------------|
D|-------------||-------------||-------------|
A|-------------||-------------||-------------|
E|-------------||-------------||-------------|
“stir my heart”
E|-------------------------|----------------------|       
B|-------------------------|----------------------|       
G|-------------666---------|----------------------|2x     
D|-777-666-777----777-666--|-777-666--------------|   
A|-------------------------|----------555-777-99--|       
E|-------------------------|----------------------|   
“2nd all my strength”
e|---------------------------------------------------------------|
B|---------------------------------------------------------------|
G|-1111111111111111-99999999-1414141414141414-18181818-16161616--|
D|-x-x-x-x-x-x-x-x--xxxxxxxx-x-x-x-x-x-x-x-x--x-x-x-x--x-x-x-x---|
A|-9-9-9-9-9-9-9-9--77777777-1212121212121212-16161616-14141414--|
E|---------------------------------------------------------------|
then
E|-------------------------999---------------|-----------------------------------|       |----------|
B|-10-10-10-9-9-9-10-10-10----10-10-10-9-9-9-|-10-10-10-9-9-9--------------------|       |-12-12s14-|
G|-------------------------------------------|---------------7-7-7-9-9-9--11-11--|2x     |----------|
D|-------------------------------------------|-----------------------------------|   then|----------| 
A|-------------------------------------------|-----------------------------------|       |----------|
E|-------------------------------------------|-----------------------------------|       |----------|

Guitar 2
e|------------------------|
B|------------------------|
G|-4-------7---11---9999--|
D|-4---7---7---11---9999--|
A|-2---7---5---9----7777--|
E|-----5------------------|
                PM| ....|
e|-7------5-------5-----2-----0-|
B|-7------5-5-----5-5---2-2---0-|
G|-7------6---6---7--7--2--2--1-|
D|-9------7-----7-7---7-4---4-2-|just listen to the song
A|-9------7-------5-----4-----2-|
E|-7------5-------------2-----0-|
then
e|------------------------------------------|         |---|
B|------------------------------------------|         |---|
G|-44444444----------77777777-111111119999--|         |-7-|
D|-44444444-77777777-77777777-111111119999--|2x then  |-7-|let it ring
A|-22222222-77777777-55555555-9-9-9-9-7777--|         |-5-|
E|----------55555555------------------------|         |---|

Outro

Guitar 1
Guitar 1
Riff 1                                                                                    Riff 2
E|-------------------------999---------------|-----------------------------------|       |----------|
B|-10-10-10-9-9-9-10-10-10----10-10-10-9-9-9-|-10-10-10-9-9-9--------------------|       |-12-12s14-|
G|-------------------------------------------|---------------7-7-7-9-9-9--11-11--|2x     |----------|
D|-------------------------------------------|-----------------------------------|   then|----------| 
A|-------------------------------------------|-----------------------------------|       |----------|
E|-------------------------------------------|-----------------------------------|       |----------|

Guitar 2
Riff 1                                                                       Riff 2      
E|------------------------------------|-----------------------------|       |----------|
B|------------------------------------|-----------------------------|       |----------|
G|-------------------6-6-6------------|-----------------------------|2x     |----------|
D|-7-7-7-6-6-6-7-7-7------7-7-7-6-6-6-|-7-7-7-6-6-6-----------------|   then|-9-9s11---|
A|------------------------------------|-------------5-5-5-7-7-7-9-9-|       |----------|
E|------------------------------------|-----------------------------|       |----------|




Tab legend:
Slide- s
Hammer- h
Bend- b
Dead note- x
Vibrato- v

            
            
Suggest correction
Creating personal tab
Creating personal tab
You can edit any tab online and save it as your Personal.

You can edit, replace or remove any tab part or add personal notes – all changes will be seen only by you.

Personal tabs can be accessed anytime from any device, even offline.
Learn more »
Give kudos to tab author, rate the tab!
1 2 3 4 5
comments
print report bad tab
guest
You may want to rate the tab now too:
select rating
Wanna post a correction for this tab? Suggest correction