Oops, an error
Loading. Please wait.

Forever Be With You Tab

49 views 1 this week
no commentswrite comment
1 2 3 4 5
2 more votes to show rating
add to favorites
launch autoscroll
font size
0
reset
how to read this tab
guitar tuner
Autoscroll
slow
fast
+/-
esc
set tempo
stop
Help us to improve Ultimate-Guitar.com Take our survey!
×
----------------------------------------------------------------------------------
                          Forever Be With You - Liveloud
----------------------------------------------------------------------------------

This is my first tab sheet I've ever made so bear with it if it doesn't make sense at parts, but I 
tried to make it as close to the recording as I can. I believe it's not 100% perfect but it's close enough.
Enjoy and thanks!


[Intro]

e|--------------------------------------------------------------|  
B|--------------------------------------------------------------|   
G|---10-10--10-10-----14--14-14---12/14---17--17-17---17/19/17--| 
D|---8--8---8--8------------------------------------------------|
A|--------------------12--12-12---10/12---15--15-15---15/17/15--|
E|--------------------------------------------------------------|

e|------------------------------------------|
B|------------------------------------------|
G|-14--14-14---12/14/12--9-9-9-10-10-10-----|
D|------------------------------------------|
A|-12--12-12---10/12/10--7-7-7-8--8--8------|
E|------------------------------------------|

e|-------------------------------------------------------13p12-------------------|  
B|----------------------------------------------------13-------13--11-------10---|   
G|---14--14-14---12/14---17--17-17---17/19/17----14------------------------------| 
D|-------------------------------------------------------------------------------|  
A|---12--12-12---10/12---15--15-15---15/17/15----12------------------------------|
E|-------------------------------------------------------------------------------| 


[Verse 1]
(...and to forever be with you)

e|--------------------------3---------------8-----------------|
B|----11-x-x-x-x-x-x-----6-----6---------11----11-------------|
G|----10-x-x-x-x-x-x-----5--------5------10--------10---------|
D|----8--x-x-x-x-x-x-----3---------------8--------------------|
A|------------------------------------------------------------|
E|------------------------------------------------------------|

e|------------------------------------------------------------|
B|--10--10-------8--8-------10--10--------11-x-x-x-x-x-x------|
G|--7------7-----5----5-----9------9------10-x-x-x-x-x-x------|
D|--7------------5----------7-------------8--x-x-x-x-x-x------|
A|------------------------------------------------------------|
E|------------------------------------------------------------|


[Pre-Chorus]

(Delay around 400ms)

e|-----------------------------------------------------------------------------------13/12----------|
B|--------------13-13-13-13-13-11-11-11-11-11-10-10-10-13-13-13-13-13-13-13-11-11-11-------13-13-13-|
G|-----10-10-10-------------------------------------------------------------------------------------|
D|--------------------------------------------------------------------------------------------------|
A|--------------------------------------------------------------------------------------------------|
E|--------------------------------------------------------------------------------------------------|

e|---------------------------------------------------------------------------|
B|----------13-13-13-13-13-11-11-11-11-11-11-11-11-13-13-13-13-13-13-13-13---|
G|-10-10-10------------------------------------------------------------------|
D|---------------------------------------------------------------------------|
A|---------------------------------------------------------------------------|
E|---------------------------------------------------------------------------|

e|--------------------------------------------------------|
B|----------------13-13--13-13--13-13-13-13-13-13-13-13---|
G|--------------------------------------------------------|
D|--(no delay)----10-10--10-10--10-10-10-10-10-10-10-10---|
A|----------------10-10--10-10--10-10-10-10-10-10-10-10---|
E|--------------------------------------------------------|


[Chorus]

e|------------------------------------------------------------------|
B|-----11--11-11-11-11---6--6-6-6-6---10--10-10-10-10---8--8-8-8-8--|
G|-----10--10-10-10-10---5--5-5-5-5---7---7--7--7--7----5--5-5-5-5--|
D|-----8---8--8--8--8----3--3-3-3-3---7---7--7--7--7----5--5-5-5-5--|
A|------------------------------------------------------------------|
E|------------------------------------------------------------------|

e|------------------------------------------------::---------------|
B|--11--11-11-11-11---6--6-6-6-6---8--8-8-8-8-----::---------------|
G|--10--10-10-10-10---5--5-5-5-5---5--5-5-5-5-----::---------------| (Repeat x2)
D|--8---8--8--8--8----3--3-3-3-3---5--5-5-5-5-----::--8p7---12-10--|
A|------------------------------------------------::------8--------|
E|------------------------------------------------::---------------|


[Instrumental]

e|---------------------------------------------|  
B|---------------------------------------------|   
G|---14--14-14---12/14---17--17-17---17/19/17--| 
D|---------------------------------------------|
A|---12--12-12---10/12---15--15-15---15/17/15--|
E|---------------------------------------------|

e|------------------------------------------|
B|------------------------------------------|
G|-14--14-14---12/14/12--9-9-9-10-10-10-----|
D|------------------------------------------|
A|-12--12-12---10/12/10--7-7-7-8--8--8------|
E|------------------------------------------|

e|-------------------------------------------------------13p12---------------|  
B|----------------------------------------------------13-------13--11--------|   
G|---14--14-14---12/14---17--17-17---17/19/17----14--------------------------| 
D|---------------------------------------------------------------------------|  
A|---12--12-12---10/12---15--15-15---15/17/15----12--------------------------|
E|---------------------------------------------------------------------------| 



[Verse 2]

    * *   * *   *   * *   * *   *   (pattern continues)                                                  
e|-----------------------------------------------------------------------------------|
B|--6-6-6-6-6-6-6-6-6-6-6-6-6-6-6-6-11-11-11-11-11-11-11-11-11-11-11-11-11-11-11-11--|
G|--5-5-5-5-5-5-5-5-5-5-5-5-5-5-5-5-10-10-10-10-10-10-10-10-10-10-10-10-10-10-10-10--|
D|--3-3-3-3-3-3-3-3-3-3-3-3-3-3-3-3-8--8--8--8--8--8--8--8--8--8--8--8--8--8--8--8---|
A|-----------------------------------------------------------------------------------|
E|-----------------------------------------------------------------------------------|


e|------------------------------------------------------------------------------------------|
B|-10-10-10-10-10-10-10-10-8-8-8-8-8-8-8-8-10-10-10-10-10-10-10-10-11-11-11-11-11-11-11-11--|
G|-7--7--7--7--7--7--7--7--5-5-5-5-5-5-5-5-9--9--9--9--9--9--9--9--10-10-10-10-10-10-10-10--|
D|-7--7--7--7--7--7--7--7--5-5-5-5-5-5-5-5-7--7--7--7--7--7--7--7--8--8--8--8--8--8--8--8---|
A|------------------------------------------------------------------------------------------|
E|------------------------------------------------------------------------------------------|


[Pre-Chorus]
(Delay around 400ms)

e|-----------------------------------------------------------------------------------13/12----------|
B|--------------13-13-13-13-13-11-11-11-11-11-10-10-10-13-13-13-13-13-13-13-11-11-11-------13-13-13-|
G|-----10-10-10-------------------------------------------------------------------------------------|
D|--------------------------------------------------------------------------------------------------|
A|--------------------------------------------------------------------------------------------------|
E|--------------------------------------------------------------------------------------------------|

e|---------------------------------------------------------------------------|
B|----------13-13-13-13-13-11-11-11-11-11-11-11-11-13-13-13-13-13-13-13-13---|
G|-10-10-10------------------------------------------------------------------|
D|---------------------------------------------------------------------------|
A|---------------------------------------------------------------------------|
E|---------------------------------------------------------------------------|

e|--------------------------------------------------------|
B|----------------13-13--13-13--13-13-13-13-13-13-13-13---|
G|--------------------------------------------------------|
D|--(no delay)----10-10--10-10--10-10-10-10-10-10-10-10---|
A|----------------10-10--10-10--10-10-10-10-10-10-10-10---|
E|--------------------------------------------------------|


[Chorus]

e|------------------------------------------------------------------|
B|-----11--11-11-11-11---6--6-6-6-6---10--10-10-10-10---8--8-8-8-8--|
G|-----10--10-10-10-10---5--5-5-5-5---7---7--7--7--7----5--5-5-5-5--|
D|-----8---8--8--8--8----3--3-3-3-3---7---7--7--7--7----5--5-5-5-5--|
A|------------------------------------------------------------------|
E|------------------------------------------------------------------|

e|------------------------------------------------::---------------|
B|--11--11-11-11-11---6--6-6-6-6---8--8-8-8-8-----::---------------|
G|--10--10-10-10-10---5--5-5-5-5---5--5-5-5-5-----::---------------| (Repeat x2)
D|--8---8--8--8--8----3--3-3-3-3---5--5-5-5-5-----::--8p7---12-10--|
A|------------------------------------------------::------8--------|
E|------------------------------------------------::---------------|


[Solo]

e|---------------------------------------------------------------------------------------------|
B|-----------------------------13-13-13-12-12-11-11--------------------------------------------|
G|-----10-10-10-9-9-9-10-10-10----------------------10-10-10-9-9-9-10-10-10--------------------|
D|--------------------------------------------------------------------------10-10-10-7h8p7-----|
A|---------------------------------------------------------------------------------------------|
E|---------------------------------------------------------------------------------------------|

e|--13-13-13-12-12-12-13-13-13-20-20-20-18-18-17---13----15----17/18/17-----------13p12--------|
B|----------------------------------------------13----13----13----------13-----13-------13-----|
G|-----------------------------------------------------------------------------------------14--|
D|---------------------------------------------------------------------------------------------|
A|---------------------------------------------------------------------------------------------|
E|---------------------------------------------------------------------------------------------|


[Bridge]
(...my life and all)

e|----------------------------------------------------------------------------------------13/12----------|
B|------------13-13-13-13-13-11-11-11-11-10-10-10-13-13--------13-13-13-13-13-11-11-11-11-------13-13-13-|
G|-----10-10--------------------------------------------10-10--------------------------------------------|
D|-------------------------------------------------------------------------------------------------------|
A|-------------------------------------------------------------------------------------------------------|
E|-------------------------------------------------------------------------------------------------------|

e|--------------------------------------------------------------------------|
B|-------13-13-13-13-13-11-11-11-10-10-11-11--------13-13-13-13-13-13-------|
G|-10-10--------------------------------------10-10-------------------------|
D|--------------------------------------------------------------------------|
A|--------------------------------------------------------------------------|
E|--------------------------------------------------------------------------|

e|-----------------------------------------------------------------|
B|----------------13-13-13-13-13-13-13-13-13-13-13-13--13-13---11--|
G|-------------------------------------------------------------10--|
D|--(no delay)----10-10-10-10-10-10-10-10-10-10-10-10--10-10---8---|
A|----------------10-10-10-10-10-10-10-10-10-10-10-10--10-10-------|
E|-----------------------------------------------------------------|


[Chorus]

   {build up}
e|-----------------------------|
B|-8-8-8-8-8-8-8---------------|
G|-5-5-5-5-5-5-5---------------| 
D|-5-5-5-5-5-5-5--8p7---12-10--|
A|--------------------8--------|
E|-----------------------------|

e|------------------------------------------------------------------|
B|-----11--11-11-11-11---6--6-6-6-6---10--10-10-10-10---8--8-8-8-8--|
G|-----10--10-10-10-10---5--5-5-5-5---7---7--7--7--7----5--5-5-5-5--|
D|-----8---8--8--8--8----3--3-3-3-3---7---7--7--7--7----5--5-5-5-5--|
A|------------------------------------------------------------------|
E|------------------------------------------------------------------|

e|----------------------------------------------------|
B|--11--11-11-11-11---6--6-6-6-6---8--8-8--8-8-8-8-8--|
G|--10--10-10-10-10---5--5-5-5-5---5--5-5--5-5-5-5-5--|
D|--8---8--8--8--8----3--3-3-3-3---5--5-5--5-5-5-5-5--|
A|----------------------------------------------------|
E|----------------------------------------------------|


[Outro]

e|-------------------------------------------------|  
B|-------------------------------------------------|   
G|-------14--14-14---12/14---17--17-17---17/19/17--| 
D|-------------------------------------------------|
A|-------12--12-12---10/12---15--15-15---15/17/15--|
E|-------------------------------------------------|

e|------------------------------------------|
B|------------------------------------------|
G|-14--14-14---12/14/12--9-9-9-10-10-10-----|
D|------------------------------------------|
A|-12--12-12---10/12/10--7-7-7-8--8--8------|
E|------------------------------------------|

e|-------------------------------------------------------13p12-------------|  
B|----------------------------------------------------13-------13--11------|   
G|---14--14-14---12/14---17--17-17---17/19/17----14------------------------| 
D|-------------------------------------------------------------------------|  
A|---12--12-12---10/12---15--15-15---15/17/15----12------------------------|
E|-------------------------------------------------------------------------|



************************************

| x  Dead note
| h  Hammer-on
| p  Pull-off
| /  Slide up
| :: reprise

************************************
Suggest correction
Give kudos to tab author, rate the tab!
1 2 3 4 5
comments
print report bad tab
guest
You may want to rate the tab now too:
select rating
Wanna post a correction for this tab? Suggest correction