Oops, an error
Loading. Please wait.

From Within tab

838 views 12 this week
no commentswrite comment
1 2 3 4 5
2 more votes to show rating
add to favorites
×
Save as Personal and add changes to this tab that will be seen only by you. Learn more ›
×
You can save this tab as Personal to edit and correct it or add notes. All changes will be seen only by you. Learn more »
launch autoscroll
font size
0
reset
how to read this tab
guitar tuner
edit
Autoscroll
slow
fast
+/-
esc
set tempo
stop
Author
Difficulty
From Within    transcribed by: Rodino Sim of SFC CC3
Words and Music by: Bimbo Yerro
(Effects use in Guitar 1 Digital Delay 7th  level ung delay.  naka Zoom G1XN kasi ako setting nya C7 then
add Analog delay 7th level and maganda kung nakastratocaster kayo)

Intro

Guitar 1 digital delay
E|---2-2-|
B|--2-2--|
G|-3-----|
D|-------|4x
A|-------|
E|-------|

1stVerse

Guitar 1 digital delay
E|---2-2-|---2-2-|---2-2-|---2-2-|
B|--2-2--|--2-2--|--2-2--|--2-2--|
G|-3-----|-3-----|-3-----|-3-----|
D|-------|-------|-------|-------|2x
A|-------|-------|-------|-------|
E|-------|-------|-------|-------|

1st Refrain

Guitar 1 digital delay    *
E|-------|-----4-|-------|---4---|
B|-----4-|---4---|-----4-|---4---|
G|---4---|-6-----|---4---|---6---|  *last chord let it ring
D|-6-----|-------|-6-----|---6---|
A|-------|-------|-------|---4---|
E|-------|-------|-------|-------|

1st Chorus

Guitar 1 digital delay
E|-----9-|-------9-|-------9-|--------4-|-----9-|-9---9----|
B|-9--9--|-7---7---|-7---7---|---4--4---|-9--9--|----9---9-|
G|--11---|---6-----|---8-----|--4--6----|--11---|--11—11---|
D|-------|---------|---------|-6--------|-------|----------|
A|-------|---------|---------|----------|-------|----------|
E|-------|---------|---------|----------|-------|----------|
     2x       2x        1x         1x       1x        1x





Guitar 2 distorted
(bagsak-bagsak lang)
E|--9----|---6-----|---7-----|--4--4----|--9----|--4--|
B|--9----|---7-----|---7-----|--4--4----|--9----|--4--|
G|--11---|---6-----|---8-----|--4--6----|--11---|--6--|
D|--11---|---8-----|---9-----|--6--6----|--11---|--6--|
A|--9----|---6-----|---9-----|--6--4----|--9----|--4--|
E|-------|---------|---7-----|----------|-------|-----|
     2x       2x        1x         1x       1x     1x
Intro

Guitar 1 digital delay
E|---2-2-|
B|--2-2--|
G|-3-----|
D|-------|4x
A|-------|
E|-------|

Guitar 2 distorted
(bagsak-bagsak lang)
E|--9----|
B|--9----|
G|--11---|
D|--11---|4x
A|--9----|
E|-------|

2nd Verse

Guitar 1 digital delay
E|---2-2-|---2-2-|---2-2-|---2-2-|
B|--2-2--|--2-2--|--2-2--|--2-2--|
G|-3-----|-3-----|-3-----|-3-----|
D|-------|-------|-------|-------|2x
A|-------|-------|-------|-------|
E|-------|-------|-------|-------|

Guitar 2 distorted(may unting delay ung effects)
(bagsak-bagsak lang)
E|--9----|--9----|--2----|--4----|
B|--9----|--12---|--2----|--2----|
G|--11---|--11---|--4----|--4----|
D|--11---|--11---|--4----|--4----|
A|--9----|--9----|--2----|--2----|
E|-------|-------|-------|-------|

2nd Refrain
Guitar 1 digital delay    
E|-------|-----4-|-------|-----4-|
B|-----4-|---4---|-----4-|---4---|
G|---4---|-6-----|---4---|-6-----|  
D|-6-----|-------|-6-----|-------|
A|-------|-------|-------|-------|
E|-------|-------|-------|-------|
Guitar 2 distorted
E|----6------2--|----4--|
B|-----4----2-2-|---4-4-|
G|---4----4-----|-6-----|  
D|-6------------|-------|
A|--------------|-------|
E|--------------|-------| 
Then
E|----4--|----2--|----------|
B|-----4-|---2-2-|----------|
G|---4---|-4-----|-66666666-|  
D|-6-----|-------|-66666666-|
A|-------|-------|-44444444-|
E|-------|-------|----------| 

2nd Chorus

Guitar 1 digital delay
E|-----9-|-------9-|-------9-|--------4-|-----9-|-9---9----|
B|-9--9--|-7---7---|-7---7---|---4--4---|-9--9--|----9---9-|
G|--11---|---6-----|---8-----|--4--6----|--11---|--11—11---|
D|-------|---------|---------|-6--------|-------|----------|2x
A|-------|---------|---------|----------|-------|----------|
E|-------|---------|---------|----------|-------|----------|
     2x       2x        1x         1x       1x        1x

Guitar 2 distorted
(strum the chords)
E|-------|---------|---------|----------|-------|-----|
B|-------|---------|---------|----------|-------|-----|
G|--11---|---6-----|---------|-----6----|--11---|--6--|
D|--11---|---8-----|---9-----|--6--6----|--11---|--6--|2x
A|--9----|---6-----|---9-----|--6--4----|--9----|--4--|
E|-------|---------|---7-----|--4-------|-------|-----|
     2x       2x        1x         1x       1x     1x

Instrumental 
Guitar 1 distorted
   F#       F#                Ebm7       Ebm7            B   G#m-C#
e|--------|-----------------|---------|----9----9----9-|----|---------|----|------|
B|-7-9-11-|----7----7-------|--7-9-11-|-6h7--6h7--6h7--|--7-|-12-11-9-|-11-|-11s9-|
G|--------|-6h8--6h8---6h8--|---------|----------------|-8--|---------|----|------|
D|--------|---------------8-|---------|----------------|----|---------|----|------|
A|--------|-----------------|---------|----------------|----|---------|----|------|
E|--------|-----------------|---------|----------------|----|---------|----|------|
Guitar 2 distorted
(strum the chords)
E|-------|---------|---------|----------|-------|-----|
B|-------|---------|---------|----------|-------|-----|
G|--11---|---6-----|---------|-----6----|--11---|--6--|
D|--11---|---8-----|---9-----|--6--6----|--11---|--6--|2x
A|--9----|---6-----|---9-----|--6--4----|--9----|--4--|
E|-------|---------|---7-----|--4-------|-------|-----|
     2x       2x        1x         1x       1x     1x

Bridge/Last 2 Refrain

Guitar 1 digital delay    *
E|-------|-----4-|-------|---4---|
B|-----4-|---4---|-----4-|---4---|
G|---4---|-6-----|---4---|---6---|  *last chord let it ring
D|-6-----|-------|-6-----|---6---|
A|-------|-------|-------|---4---|
E|-------|-------|-------|-------|
then
E|-------|-----4-|-------|-----4-|
B|-----4-|---4---|-----4-|---4---|
G|---4---|-6-----|---4---|-6-----|  
D|-6-----|-------|-6-----|-------|
A|-------|-------|-------|-------|
E|-------|-------|-------|-------|

Guitar 2 distorted
(enters at 2nd “Your Presence”)
E|----6------2--|----4--|
B|-----4----2-2-|---4-4-|
G|---4----4-----|-6-----|  
D|-6------------|-------|
A|--------------|-------|
E|--------------|-------|

Last Chorus

Guitar 1 digital delay
E|-----9-|-------9-|-------9-|--------4-|-----9-|-9---9----|
B|-9--9--|-7---7---|-7---7---|---4--4---|-9--9--|----9---9-|
G|--11---|---6-----|---8-----|--4--6----|--11---|--11—11---|
D|-------|---------|---------|-6--------|-------|----------|2x
A|-------|---------|---------|----------|-------|----------|
E|-------|---------|---------|----------|-------|----------|
     2x       2x        1x         1x       1x        1x

Guitar 2 distorted
(strum the chords)
E|-------|---------|---------|----------|-------|-----|
B|-------|---------|---------|----------|-------|-----|
G|--11---|---6-----|---------|-----6----|--11---|--6--|
D|--11---|---8-----|---9-----|--6--6----|--11---|--6--|2x
A|--9----|---6-----|---9-----|--6--4----|--9----|--4--|
E|-------|---------|---7-----|--4-------|-------|-----|
     2x       2x        1x         1x       1x     1x






Outro
Guitar 1 digital delay
E|-------9-|--------4-|-----9-|-9---9----|--9--|
B|-7---7---|---4--4---|-9--9--|----9---9-|--9--|
G|---8-----|--4--6----|--11---|--11—11---|--11-|
D|---------|-6--------|-------|----------|--11-|
A|---------|----------|-------|----------|--9--|
E|---------|----------|-------|----------|-----|

Guitar 2 distorted
(bagsak-bagsak lang)
E|---------|----------|-------|-----|--9--|
B|---------|----------|-------|-----|--9--|
G|---------|-----6----|--11---|--6--|--11-|
D|---9-----|--6--6----|--11---|--6--|--11-|
A|---9-----|--6--4----|--9----|--4--|--9--|
E|---7-----|--4-------|-------|-----|-----|


Tab legend:
Slide- s
Hammer- h

            
            
Suggest correction
Creating personal tab
Creating personal tab
You can edit any tab online and save it as your Personal.

You can edit, replace or remove any tab part or add personal notes – all changes will be seen only by you.

Personal tabs can be accessed anytime from any device, even offline.
Learn more »
Give kudos to tab author, rate the tab!
1 2 3 4 5
comments
print report bad tab
guest
You may want to rate the tab now too:
select rating
Wanna post a correction for this tab? Suggest correction