Oops, an error
Loading. Please wait.

Grateful tab

1,720 views 15 this week
no commentswrite comment
1 2 3 4 5
2 more votes to show rating
add to favorites
×
Save as Personal and add changes to this tab that will be seen only by you. Learn more ›
×
You can save this tab as Personal to edit and correct it or add notes. All changes will be seen only by you. Learn more »
launch autoscroll
font size
0
reset
how to read this tab
guitar tuner
edit
Autoscroll
slow
fast
+/-
esc
set tempo
stop
Author
Difficulty
Grateful  transcribed by: Rodino Sim of SFC CC3
Words and Music by: Jueren Nabua and Alvin Morada
Intro

Guitar 1
E|---------------------------------------|-s17--16--------------------------------| 
B|--10--9--------------------------------|---------17s19----------17~--15p14-15~--|
G|---------9h11----------9~--7--6--6h7~~-|----------------16s14-------------------| 
D|---------------9s7---------------------|----------------------14----------------| 
A|--------------------7------------------|----------------------------------------| 
E|---------------------------------------|----------------------------------------|

Guitar 2
E|--------------------|-s17--16---------------------------------| 
B|--------------------|---------17s19----------17~--19p17--19~--| 
G|------9999-77777777-|----------------16s14--------------------| 
D|-4444-9999-77777777-|----------------------14-----------------| 
A|-4444-7777-55555555-|-----------------------------------------| 
E|-2222---------------|-----------------------------------------|

Verse 

Guitar 1
E|-0-0--|--0-0--|       |-----------------------------------------------------------|
B|-0--0-|--3--3-|    |-00-0-00-0--00-0-00-0-33-3-33-3-33-3-33-3------------------|
G|-2----|--2----|       |-22-2-22-2--22-2-22-2-22-2-22-2-22-2-22-2-4444----77779999-| 
D|-2----|--0----|2x then|-22-2-22-2--44-4-44-4-00-0-00-0-00-0-00-0-4444444477779999-| 
A|-0----|-------|       |-00-0-00-0--00-0-00-0---------------------2222444455557777-|
E|------|-------|       |----------------------------------------------2222---------|

Guitar 2
(enters at “You gave me all the reason Lord”)
E|-------------------------------------------------------10-9--------------| 
B|------------------------10-----------10s12-12-12p10-10------10-----------| 
G|------------------7p6h7----7-6-7-7s9--------------------------9-6-7------|
D|----6-77-6-7-7s9---------------------------------------------------7-7s9-|
A|-5s7------------7--------------------------------------------------------| 
E|-------------------------------------------------------------------------|

Chorus
Guitar 1
E|------------------------------------------------------------------------------------|
B|-0000000033333333-------------------------------0000000033333333--------------------|
G|-2222222222222222----------77777777-------------2222222222222222-4444---------------| 
D|-2222444400000000-44442222-77777777-------------2222444400000000-44444444-99999999--| 
A|-00000000---------44442222-55555555------4h5p4--00000000---------22224444-77777777--|
E|------------------22220000----------0-5-7----------------------------2222-----------|
Guitar 2
E|-----------------------------------------------------------------------------|
B|-1010101010101010-----------------------7777-------------------7777----------|
G|-9-9-9-9-9-9-9-9---77777777-------------66669999-77777777--77776666-99999999-| 
D|-x-x-x-x-x-x-x-x---77777777-------------xxxx9999-77777777--7777xxxx-99999999-| 
A|-7-7-7-7-9-9-9-9---55555555------4h5p4--44447777-55555555--xxxx4444-77777777-|
E|----------------------------0-5-7--------------------------7777--------------|
Repeat all pero may lick na yung guitar 1 sa verse 1

Guitar 1
     2x         2x
E|-------12--|-------10--|  
B|-10-10-----|-10-10-----|  
G|-----------|-----------|  I’m not sure about it, just listen to the song
D|-----------|-----------|2x
A|-----------|-----------|       
E|-----------|-----------|

Intrumental

Guitar 1
E|-----------------------------------------10p9------------------------------------| 
B|-------------------10p9--------------10--------10---------------------------7p5--|
G|----------7s6s7s9--------9--9--9h11----------------9--7----------------7p6-------|
D|-------7------------------------------------------------7p6-------7p6------------|
A|--7h9--------------------------------------------------------7p9-----------------|
E|---------------------------------------------------------------------------------|
then                               PM|. .  . . |
E|---------------------------------------|
B|--10--9--------------------------------|
G|---------9h11----------9~--7--6--6h7~~-| 
D|---------------9s7---------------------|
A|--------------------7------------------| 
E|---------------------------------------|

Guitar 2
E|--------------------|-s17--16---------------------------------| 
B|--------------------|---------17s19----------17~--19p17--19~--| 
G|------9999-77777777-|----------------16s14--------------------| 
D|-4444-9999-77777777-|----------------------14-----------------| 
A|-4444-7777-55555555-|-----------------------------------------| 
E|-2222---------------|-----------------------------------------|

Bridge

Guitar 1
E|-------------------------------------| 
B|-------------------------------------| 
G|-4-44-222----------44442222-77777777-| 
D|-4-44-222-4-44-222-44442222-77777777-| 2x then babad sa last chord
A|-2-22-000-4-44-222-22220000-55555555-| sa 2nd na ulet
E|----------2-22-000-------------------|    
PM|  ..       ..

Guitar 2
“When trouble comes my way” “You are there to stay
E|---------------------|        |------------| 
B|--12b12--10------10--|        |---17b17~~~-| 
G|-------------11------|        |------------|
D|---------------------|        |------------|
A|---------------------|        |------------| 
E|---------------------|        |------------| 
“And everything will be alright”
E|-12p10p9----10p9p7----------------------------------------------| 
B|--------------------12p10p9--10p9p7-----------------------------|
G|-------------------------------------9p7p6--7p6p4---------------| 
D|---------------------------------------------------7p6p4h6h7s9v-| 
A|----------------------------------------------------------------|
E|----------------------------------------------------------------|
“That this love is You”
E|-----------------| 
B|-----------------| 
G|-----6h7p6-------| 
D|--7---------7s9v-| 
A|-----------------| 
E|-----------------|    
“And I will live each day and say”  (E Major Triplet legato run “triplet ung feel”)
E|---------------------------------------------------------------------------| 
B|---------------------------------------------------------------------------| 
G|--------------------------------------------------13h14h16--------13h14h16-| 
D|--------------------------13h14h16--------13h14h16--------13h14h16---------| 
A|---------12h14h16-12h14h16--------12h14h16---------------------------------| 
E|-12h14h16------------------------------------------------------------------|
then
E|---------------------------------------------------------14h16h17-| 
B|-----------------14h16h17--------14h16h17--------14h16h17---------| 
G|---------13h14h16--------13h14h16--------13h14h16-----------------| 
D|-13h14h16---------------------------------------------------------| 
A|------------------------------------------------------------------| 
E|------------------------------------------------------------------|
then
E|---------14h16h17-17p16h14-------------------------------| 
B|-14h16h17-----------------17p16h14-----------------------| 
G|----------------------------------16p14p13-16p14p13h14v--| 
D|---------------------------------------------------------| 
A|---------------------------------------------------------| 
E|---------------------------------------------------------|

Last 2 Chorus
Drums only then

Guitar 1
               “I willl serve and You with all of my heart”
E|-------------------------------------------------|
B|-------------0000000033333333--------------------|
G|-------------2222222222222222-4444---------------| 
D|-------------2222444400000000-44444444-99999999--| 
A|------4h5p4--00000000---------22224444-77777777--|
E|-0-5-7----------------------------2222-----------|
then
E|------------------------------------------------------------------------------------|
B|-0000000033333333-------------------------------0000000033333333--------------------|
G|-2222222222222222----------77777777-------------2222222222222222-4444---------------| 
D|-2222444400000000-44442222-77777777-------------2222444400000000-44444444-99999999--| 
A|-00000000---------44442222-55555555------4h5p4--00000000---------22224444-77777777--|
E|------------------22220000----------0-5-7----------------------------2222-----------|


Guitar 2
               “I willl serve and You with all of my heart”
E|--------------------------------------------------|
B|-------------7777-------------------7777----------|
G|-------------66669999-77777777--77776666-99999999-| 
D|-------------xxxx9999-77777777--7777xxxx-99999999-| 
A|------4h5p4--44447777-55555555--xxxx4444-77777777-|
E|-0-5-7--------------------------7777--------------|
then
E|-----------------------------------------------------------------------------|
B|-1010101010101010-----------------------7777-------------------7777----------|
G|-9-9-9-9-9-9-9-9---77777777-------------66669999-77777777--77776666-99999999-| 
D|-x-x-x-x-x-x-x-x---77777777-------------xxxx9999-77777777--7777xxxx-99999999-| 
A|-7-7-7-7-9-9-9-9---55555555------4h5p4--44447777-55555555--xxxx4444-77777777-|
E|----------------------------0-5-7--------------------------7777--------------|

Outro
Do the intro


                        
Tab legend:
Slide- s
Hammer- h
Pull off- p
Bend- b
Dead note- x
Vibrato- v
Let it ring- ~

            
            
Suggest correction
Creating personal tab
Creating personal tab
You can edit any tab online and save it as your Personal.

You can edit, replace or remove any tab part or add personal notes – all changes will be seen only by you.

Personal tabs can be accessed anytime from any device, even offline.
Learn more »
Give kudos to tab author, rate the tab!
1 2 3 4 5
comments
print report bad tab
guest
You may want to rate the tab now too:
select rating
Wanna post a correction for this tab? Suggest correction