Oops, an error
Loading. Please wait.

I Know tab

1,852 views 39 this week
no commentswrite comment
1 2 3 4 5
2 more votes to show rating
add to favorites
×
Save as Personal and add changes to this tab that will be seen only by you. Learn more ›
×
You can save this tab as Personal to edit and correct it or add notes. All changes will be seen only by you. Learn more »
launch autoscroll
font size
0
reset
how to read this tab
guitar tuner
edit
Autoscroll
slow
fast
+/-
esc
set tempo
stop
Author
Difficulty
I Know transcribed by: Rodino Sim of SFC CC3
Intro

Guitar 1
(nakita ko lang ung riff na to kay joseph echavez nung Icon)  
  Riff 1                              Riff 2
e|-------------------------|       |-12--12-----14—14-|-14—14-----16--16-|
B|-555-444-----------------|       |---12--12-12--12--|---12-12-12--12---|
G|---------444--666—1h2-1--|       |------------------|------------------|
D|------------------------2|4x then|------------------|------------------|
A|-------------------------|       |------------------|------------------| 
E|-------------------------|       |------------------|------------------|
                                             2x                 2x
(Do it fast)              
e|--19---------------19----------------16h17p16-------------------|
B|----19-17-16h17-19---19-17-16h17-19-----------19-17-16-16h17-17-|
G|----------------------------------------------------------------|
D|----------------------------------------------------------------|
A|----------------------------------------------------------------|
E|----------------------------------------------------------------|

Guitar 2

 (strum the chords)
e|----------------|
B|----------------|
G|-1-2-6-2\4------| 
D|-2-2-6-2\4------| just listen to the song for the timing
A|-2-0-4-0\2------|
E|-0--------------|

       E                A                      C#m
e|------------------------------------|     |---------------|(medyo Tricky
B|------------------------------------|     |-------5-4---4-|  tong part 
G|--9999--9-9999--9-------------------| then|----6------6---|     na to)
D|--9999--9-9999--9---7777—-7-7777--7-|     |-----6---------| 2x
A|--7777--7—7777--7---7777—-7-7777--7-|     |-44------------|
E|--------------------5555—-5-5555--5-|     |---------------|
 PM|....    ....      ....    ....|        PM|.. .. . . . .
     A        B
e|----------------------|
B|----------------------|
G|----------------------|
D|---77777777-99999999--| 
A|---77777777-99999999--|
E|---55555555-77777777--|    


Verse

Guitar 1
(Enter after Your Love is Forever)
e|-------------|     |-----------------------------|
B|-------------|     |------------------------9-12-|
G|-------------|then |-------------999-111111------|
D|--9---999999-|     |-9-99-111111-----------------|3x
A|--9---999999-|     |-----------------------------|
E|--7---777777-|     |-----------------------------|
     PM|......|       |. .. . . .  ... . . .|

e|---------------------|
B|--9-10-12--9-10-12---|
G|---------------------|
D|---------------------|
A|---------------------|
E|---------------------|

Guitar 2 
(enters after your love is forever)                        
e|-------------|     
B|-------------|     
G|-------------| 
D|--9---999999-|     
A|--9---999999-|     
E|--7---777777-|     
     PM|......|       

    E       A                 C#m               A         B
e|-----------------------------------------------------------------|
B|----------1010101010101010--1414141414141414---------------------|
G|-99999999-9-9-9-9-9-9-9-9---1313131313131313---------------------|
D|-99999999-x-x-x-x-x-x-x-x---x-x-x-x-x-x-x-x---77777777--99999999-|
A|-77777777-7-7-7-7-7-7-7-7---1111111111111111--77777777--99999999-|
E|----------------------------------------------55555555--77777777-|
  (parang tumatalon ung chords dito)
  (just listen to the song for timing)

Refrain

Guitar 1
(you have captured)
e|-12b-12b----------------------|
B|------------------------------|
G|------------------------------|
D|-----------77777777-99999999--|2x (just listen to the song)
A|-----------77777777-99999999--|
E|-----------55555555-77777777--|
          
Guitar 2
(ung x dito parang iniscratch ung gitara)
(you have captured)
e|--------------------------|
B|--------------------------|
G|---44xx------------6\8/4--|
D|---66xx---77xx-99--x\x/x--|
A|---44xx---77xx-99--4\6/2--|
E|----------55xx-77---------|

(you’ve completed)
e|--------------------------|
B|--------------------------|
G|---44xx------------6\8/9--|
D|---66xx---77xx-99--x\x/x--|
A|---44xx---77xx-99--4\6/7--|
E|----------55xx-77---------|


Chorus

Guitar 1
e|---------------------------------------------------------------------------|
B|---------------------------------------------------------------------------|
G|-9999\1111/131313-14141414/1616\141414-13131313\14141414-13131313\14141414-|
D|-xxxx\x-x-/x-x-x—-x-x-x-x-/x-x-\x-x-x--x-x-x-x-\x-x-x-x--x-x-x-x-\x-x-x-x -|
A|-7777\9-9-/111111-12121212/1414\121212—11111111\12121212-11111111\12121212-|
E|---------------------------------------------------------------------------|

Chorus
(strum the chords)
e|----------------|
B|----------------|
G|-1-2-6-2\4------| 
D|-2-2-6-2\4------| just listen to the song for the timing
A|-2-0-4-0\2------|
E|-0--------------|

(Repeat all Pero riff 1 n lng ng Guitar 1 ung intro then ganito C#m nung 
Guitar 2)
C#m
e|---------------|(medyo Tricky
B|-------5-4---4-|  tong part 
G|----6------6---|     na to)
D|-----6---------| 2x
A|-44------------|
E|---------------|
PM|.. .. . . . .

Interlude
(Do the Intro)

Bridge

Guitar 1 
(enters at 2nd “I am Thankful for Your Kindness Lord”)
e|-----------------------------|(just listen to the song for timing)
B|------------------------9-12-|
G|-------------999-111111------|
D|-9-99-111111-----------------|3x
A|-----------------------------|
E|-----------------------------|
PM|. .. . . .  ... . . .|

e|---------------------|
B|--9-10-12--9-10-12---|
G|---------------------|
D|---------------------|
A|---------------------|
E|---------------------|
 
Guitar 2
(I am Thankful)     
e|-0-0-0-0--|-0-0---0-0---0-0---0-0----|     
B|-5-0-0-0--|-5--5--0--0--0--0--0--0---|     
G|-6-2-1-4--|-6---6-2---2-1---1-4---4--| 
D|-6-2-2-4--|-6-----2-----2-----4------|     
A|-4-0-2-2--|-4-----0-----2-----2------|     
E|----------|--------------------------|     
 
e|---------------------|
B|---------------------|
G|---9-8h9p8-----------|
D|-99--------9---------|8x
A|---------------------|
E|---------------------|
PM|... . . . .
Then
Refrain

Guitar 1
(you have captured)
e|-12b-12b----------------------|
B|------------------------------|
G|------------------------------|
D|--------------------99999999--| (just listen to the song)
A|--------------------99999999--|
E|--------------------77777777--|
                  
(you’ve completed)
e|-12b-12b----------------------|
B|------------------------------|
G|------------------------------|
D|-----------77777777-99999999--| 
A|-----------77777777-99999999--|
E|-----------55555555-77777777--|
          
Guitar 2
(you have captured)
e|------------------------------|
B|------------------------------|
G|--66xx------------------------|
D|--66xx--------------99999999--| (just listen to the song)
A|--44xx--------------99999999--|
E|--------------------77777777--|
                  PM |........|

(you’ve completed)
e|--------------------------|
B|--------------------------|
G|---44xx------------6\8/9--|
D|---66xx---77xx-99--x\x/x--|
A|---44xx---77xx-99--4\6/7--|
E|----------55xx-77---------|

Repeat Chorus

Outro
(repeat Intro)



Tab Legend: Slide- \/  Palm Mute- PM|..|  Hammer- h  Pull-off- p
            Dead note- x

            
            
Suggest correction
Creating personal tab
Creating personal tab
You can edit any tab online and save it as your Personal.

You can edit, replace or remove any tab part or add personal notes – all changes will be seen only by you.

Personal tabs can be accessed anytime from any device, even offline.
Learn more »
Give kudos to tab author, rate the tab!
1 2 3 4 5
comments
print report bad tab
guest
You may want to rate the tab now too:
select rating
Wanna post a correction for this tab? Suggest correction