Oops, an error
Loading. Please wait.

More Of You tab

version 1
version 1

Whole song

220 views 3 this week
no commentswrite comment
1 2 3 4 5
3 more votes to show rating
add to favorites
×
Save as Personal and add changes to this tab that will be seen only by you. Learn more ›
×
You can save this tab as Personal to edit and correct it or add notes. All changes will be seen only by you. Learn more »
launch autoscroll
font size
0
reset
how to read this tab
guitar tuner
edit
Autoscroll
slow
fast
+/-
esc
set tempo
stop
Author
Difficulty
More of  You transcribed by: Rodino Sim of SFC CC3

Intro
Guitar 1 ( scratch ung xxx sa start)
e|----------------------------------------------------------------10101010-|   
B|-------1010101010101010-1212121212121212-101010109999-88-8-88-8-10101010-|   
G|-x-x-x-9-9-9-9-9-9-9-9--x-x-x-x-x-x-x-x--9-9-9-9-9999-77-7-77-7-x-x-x-x--|   
D|-x-x-x-x-x-x-x-x-x-x-x--9-9-9-9-9-9-9-9--7-7-7-7-9999-xx-x-xx-x—7-7-7-7--| 2x
A|-x-x-x-7-7-7-7-7-7-7-7--------------------------------55-5-55-5----------|   
E|-------------------------------------------------------------------------| 
PM| ..   ..  |
Guitar 2
e|----------------------------22-2-22-2------|   
B|-00000000-00000000-----0000-22-2-22-2-3333-|   
G|-22222222-11111111-22221111-00-0-00-0-2222-|   
D|-22222222-22222222-22222222-00-0-00-0-0000-| 2x
A|-00000000-22222222-xxxx2222-22-2-22-2------|   
E|-------------------2222-----33-3-33-3------|   
PM| ..   ..  |
Verse 
Guitar 1 Pause

Guitar 2
“God of all I adore You”
e|-9-9-9-9-9-9-9-9--1010101010101010--|   
B|-1010101010101010-1010101010101010--|   
G|-9-9-9-9-9-9-9-9--9-9-9-9-9-9-9-9---|   
D|------------------------------------|2x 
A|------------------------------------|   
E|------------------------------------|   

Then

Guitar 1 
“Oh oh oh, Holy are You Lord” 
e|------1010x1010------------------|   
B|-8888-1010x1010-1010101010101010-|   
G|-7777-x-x-xx-x--9-9-9-9-9-9-9-9--|   
D|-xxxx—7-7-x7-7--x-x-x-x-x-x-x-x--| 
A|-5555-----------7-7-7-7-7-7-7-7--|   
E|---------------------------------|
PM| ...|

Guitar 2
“Oh oh oh, Holy are You Lord” 
e|---2222-----------------|   
B|---2222-33x33-00000000--|   
G|---0000-22x22-22222222--|
D|---0000-00x00-22222222--| 
A|---2222-------00000000--|   
E|---3333-----------------|   
PM|   ...|


Guitar 1 
“Rescued from the darkness” 
e|-------------------|   
B|-1010-10-1010-1010-|   
G|-9-9--9--9-9--9-9--|   
D|-x-x--x--x-x--x-x--| 2x
A|-7-7--7--7-7--7-7--|   
E|-------------------|
PM|. .     . .  |

Guitar 2 
“Rescued from the darkness” 
e|-9-9-9-9-9-9-9-9--1010101010101010--|   
B|-1010101010101010-1010101010101010--|   
G|-9-9-9-9-9-9-9-9--9-9-9-9-9-9-9-9---|   
D|------------------------------------| 2x 
A|------------------------------------|   
E|------------------------------------|   

Then

Guitar 1 
“Oh oh oh, I’m caught by Your embrace” 
e|------1010x1010------------------|   
B|-8888-1010x1010-1010101010101010-|   
G|-7777-x-x-xx-x--9-9-9-9-9-9-9-9--|   
D|-xxxx—7-7-x7-7--x-x-x-x-x-x-x-x--| 
A|-5555-----------7-7-7-7-7-7-7-7--|   
E|---------------------------------|
PM| ...|

Guitar 2
“Oh oh oh, I’m caught by Your embrace” 
e|---2222-----------------|   
B|---2222-33x33-00000000--|   
G|---0000-22x22-22222222--|   
D|---0000-00x00-22222222--| 
A|---2222-------00000000--|   
E|---3333-----------------|   
PM|   ...|

Pre- chorus

Guitar 1(just listen to thesong for the timing)
e|---------------------------------------------------------|   
B|-9999-9999-9999-9999-10101010-10101010-10101010-10101010-|   
G|-9999-9999-9999-9999-9-9-9-9--9-9-9-9--9-9-9-9--9-9-9-9--|   
D|-9999-9999-9999-9999-7-7-7-7--7-7-7-7--7-7-7-7--7-7-7-7--| 
A|-7777-7777-7777-7777-------------------------------------|   
E|---------------------------------------------------------|   
PM|..   ..   ..   ..   . .      . .      . .      . .   |



Then
“That You are all I need”
e|-7x7-77-7x7-77-10x10-1010-------101010------|   
B|-7x7-77-7x7-77-10x10-1010-99999-101010-999--|   
G|-4x4-44-4x4-44-7-x7--7-7--99999-7-7-7--999--|   
D|-4x4-44-4x4-44-7-x7--7-7--99999-7-7-7--999--| 
A|--------------------------77777--------777--|   
E|--------------------------------------------|   
PM|                         .....|

Guitar 1(just listen to thesong for the timing)
e|----------------------------------------------------------------------------|   
B|-0000-0000-0000-0000---------------------3x3-33-3x3-33-3x3-33-------333-000-|   
G|-1111-1111-1111-1111-2222-2222-2222-2222-2x2-22-2x2-22-2x2-22-11111-222-111-|   
D|-2222-2222-2222-2222-2222-2222-2222-2222-xxx-xx-xxx-xx-0x0-00-22222-000-222-| 
A|-2222-2222-2222-2222-xxxx-xxxx-xxxx-xxxx-2x2-22-2x2-22--------22222-----222-|   
E|---------------------2222-2222-2222-2222------------------------------------|   
PM|....   ..   ..   ..   ..   ..   ..                       .....|

Chorus

Guitar 1
e|------------------1414141414141414-------------------------------------|   
B|-1212121212121212-1414141414141414-1212121211111111-10^10^10^10^10^10^-|   
G|-1111111111111111-1111111111111111-1111111111111111-9-^9-^9-^9-^9-^9-^-|   
D|-x-x-x-x-x-x-x-x--1111111111111111-9-9-9-9-11111111-x-^x-^x-^x-^x-^x-^-| 
A|-9-9-9-9-9-9-9-9------------------------------------7-^7-^7-^7-^7-^7-^-|   
E|-----------------------------------------------------------------------|
Then 
e|------------------1414141414141414---------------------------1010101010101010-|   
B|-1212121212121212-1414141414141414-1212121211111111-10^10^10^1010101010101010-|   
G|-1111111111111111-1111111111111111-1111111111111111-9-^9-^9-^7-7-7-7-7-7-7-7--|   
D|-x-x-x-x-x-x-x-x--1111111111111111-9-9-9-9-11111111-x-^x-^x-^7-7-7-7-7-7-7-7--| 
A|-9-9-9-9-9-9-9-9------------------------------------7-^7-^7-^-----------------|   
E|------------------------------------------------------------------------------|

Guitar 2
e|------------------------------------------|   
B|----------00000000-----0000-0^0^0^0^0^0^--|   
G|-44444444-33333333-44443333-1^1^1^1^1^1^--|   
D|-44444444-44444444-44444444-2^2^2^2^2^2^--| 
A|-22222222-44444444-xxxx4444-2^2^2^2^2^2^--|   
E|-------------------4444-------------------|   
Then
e|--------------------------------------------|   
B|----------00000000-----0000-0^0^0^33333333--|   
G|-44444444-33333333-44443333-1^1^1^22222222--|   
D|-44444444-44444444-44444444-2^2^2^00000000--| 
A|-22222222-44444444-xxxx4444-2^2^2^----------|   
E|-------------------4444---------------------|   

Repeat Intro


2nd Verse
Guitar 1 ” 
e|-------------------|   
B|-1010-10-1010-1010-|   
G|-9-9--9--9-9--9-9--|   
D|-x-x--x--x-x--x-x--| 2x
A|-7-7--7--7-7--7-7--|   
E|-------------------|
PM|. .     . .  |

Guitar 2 
e|-9-9-9-9-9-9-9-9--1010101010101010--|   
B|-1010101010101010-1010101010101010--|   
G|-9-9-9-9-9-9-9-9--9-9-9-9-9-9-9-9---|   
D|------------------------------------| 2x 
A|------------------------------------|   
E|------------------------------------|   

Then

Guitar 1 
e|------1010x1010------------------|   
B|-8888-1010x1010-1010101010101010-|   
G|-7777-x-x-xx-x--9-9-9-9-9-9-9-9--|   
D|-xxxx—7-7-x7-7--x-x-x-x-x-x-x-x--| 
A|-5555-----------7-7-7-7-7-7-7-7--|   
E|---------------------------------|
PM| ...|

Guitar 2
e|---2222-----------------|   
B|---2222-33x33-00000000--|   
G|---0000-22x22-22222222--|   
D|---0000-00x00-22222222--| 
A|---2222-------00000000--|   
E|---3333-----------------|   
PM|   ...|

Repeat Chorus


Instrumental(nakita ko lang sa demo ni Martin Campita sa Youtube)

1st Part (Strumming Part)
Guitar 1
E|----------------------------------------------------------------------------| 
B|--101010/1414141414141414-101010/14\12121212121212-141414141414\1212/101010-| 
G|--x-x-x-/x-x-x-x-x-x-x-x--x-x-x-/x-\x-x-x-x-x-x-x--x-x-x-x-x-x-\x-x-/x-x-x--| 
D|--7-7-7-/1111111111111111-7-7-7-/11\9-9-9-9-9-9-9--111111111111\9-9-/7-7-7--| 
A|----------------------------------------------------------------------------| 
E|----------------------------------------------------------------------------|  

Guitar 2
e|----------------------------|   
B|-00000000-00000000-----0000-|   
G|-22222222-11111111-22221111-|   
D|-22222222-22222222-22222222-| 
A|-00000000-22222222-xxxx2222-|   
E|-------------------2222-----|   

2nd Part (Sabay na Lead)

Guitar 1
E|--17p16p0--16p14p0--14p12p0--12p10p0----|---------16--16h17p16-| 
B|----------------------------------------|--12/17---------------| 
G|----------------------------------------|----------------------|
D|----------------------------------------|----------------------|
A|----------------------------------------|----------------------|
E|----------------------------------------|----------------------|

Guitar 2
E|-------------------------------------|--------12--12h14p12--| 
B|--17p15p0--15p14p0--14p12p0--12p10p0-|-12/14----------------| 
G|-------------------------------------|----------------------| 
D|-------------------------------------|----------------------| 
A|-------------------------------------|----------------------|
E|-------------------------------------|----------------------|

Last Part of Solo
Guitar 1
E|--------20---------|
B|-20b21------20b21—-|
G|-------------------|
D|-------------------|
A|-------------------|
E|-------------------|
then
E|---------15h17h20p17p15------15------------------------------------15/17--| 
B|--15h17------------------17------17p15\13--13h15h17p15p13------13---------| 
G|-----------------------------------------------------------14-------------| 
D|--------------------------------------------------------------------------| 
A|--------------------------------------------------------------------------| 
E|--------------------------------------------------------------------------|  

Guitar 2
E|------------------|
B|------------------|
G|------------------|
D|-303-333333---7~--| 
A|-303-333333---7~--|
E|-101-111111---5~--|
PM| ......

Bridge(last 3 Chorus)

3rd to last chorus
Guitar 1 
Enters at “ Your Love” 
e|-------------------|-3--------|
B|-10~-9--9---10~-9~-|-3--------|
G|-9-~-9-9-9--9-~-9~-|-0-(hold)-|
D|-x-~-x------x-~-x~-|-0--------|
A|-7-~-7------7-~-7~-|-2--------|
E|-------------------|-3--------|

Guitar 2
Enters at “ Your Love” 
e|-9--9-9--9--9-9--10-1010-121212-|-x--x-x--x--x-x--12-1212-101010--|
B|-10-1010-10-1010-10-1010-101012-|-10-1010-10-1010-10-1010-101010--|
G|-9--9-9--9--9-9--9--9-9--9-9-9--|-9--9-9--9--9-9--9--9-9--9-9-9---|
D|--------------------------------|-x--x-x--x--x-x--x--x-x--x-x-x---|
A|--------------------------------|-9--9-9--9--9-9--9--9-9--9-9-9---|
E|--------------------------------|---------------------------------|
  PM| . .. .     . .              . .     . .     . .  |
Then 
e|-9--9-9-9-9-9--9--9--9-9-9-9-9--9------|
B|-10-1010101010-10-10-1010101010-10-8~--|
G|-9--9-9-9-9-9--9--9--9-9-9-9-9--9--7~--|
D|-----------------------------------x~--|
A|-----------------------------------5~--|
E|---------------------------------------|
  PM| . . . . .        . . . . . |

2nd to last chorus
Guitar 1
e|------------------1414141414141414-------------------------------------|   
B|-1212121212121212-1414141414141414-1212121211111111-10^10^10^10^10^10^-|   
G|-1111111111111111-1111111111111111-1111111111111111-9-^9-^9-^9-^9-^9-^-|   
D|-x-x-x-x-x-x-x-x--1111111111111111-9-9-9-9-11111111-x-^x-^x-^x-^x-^x-^-| 
A|-9-9-9-9-9-9-9-9------------------------------------7-^7-^7-^7-^7-^7-^-|   
E|-----------------------------------------------------------------------|
Then 
e|------------------1414141414141414---------------------------1010101010101010-|   
B|-1212121212121212-1414141414141414-1212121211111111-10^10^10^1010101010101010-|   
G|-1111111111111111-1111111111111111-1111111111111111-9-^9-^9-^7-7-7-7-7-7-7-7--|   
D|-x-x-x-x-x-x-x-x--1111111111111111-9-9-9-9-11111111-x-^x-^x-^7-7-7-7-7-7-7-7--| 
A|-9-9-9-9-9-9-9-9------------------------------------7-^7-^7-^-----------------|   
E|------------------------------------------------------------------------------|

Guitar 2
e|------------------------------------------|   
B|----------00000000-----0000-0^0^0^0^0^0^--|   
G|-44444444-33333333-44443333-1^1^1^1^1^1^--|   
D|-44444444-44444444-44444444-2^2^2^2^2^2^--| 
A|-22222222-44444444-xxxx4444-2^2^2^2^2^2^--|   
E|-------------------4444-------------------|   
Then
e|--------------------------------------------|   
B|----------00000000-----0000-0^0^0^33333333--|   
G|-44444444-33333333-44443333-1^1^1^22222222--|   
D|-44444444-44444444-44444444-2^2^2^00000000--| 
A|-22222222-44444444-xxxx4444-2^2^2^----------|   
E|-------------------4444---------------------|  
Last Chorus
Guitar 1
e|------------------1414141414141414-------------------|   
B|-1212121212121212-1414141414141414-1212121211111111--|   
G|-1111111111111111-1111111111111111-1111111111111111--|   
D|-x-x-x-x-x-x-x-x--1111111111111111-9-9-9-9-11111111--| 
A|-9-9-9-9-9-9-9-9-------------------------------------|   
E|-----------------------------------------------------|
Then
E|------------------------------| 
B|--555/777/999/111111/1212/14--| 
G|--xxx/xxx/xxx/x-x-x-/x-x-/x---| 
D|--222/444/666/8-8-8-/9-9-/11--|       
A|------------------------------| 
E|------------------------------|  
Then 
e|------------------1414141414141414---------------------------1010101010101010-|   
B|-1212121212121212-1414141414141414-1212121211111111-10^10^10^1010101010101010-|   
G|-1111111111111111-1111111111111111-1111111111111111-9-^9-^9-^7-7-7-7-7-7-7-7--|   
D|-x-x-x-x-x-x-x-x--1111111111111111-9-9-9-9-11111111-x-^x-^x-^7-7-7-7-7-7-7-7--| 
A|-9-9-9-9-9-9-9-9------------------------------------7-^7-^7-^-----------------|   
E|------------------------------------------------------------------------------|

Guitar 2
e|------------------------------|   
B|----------00000000-----0000---|   
G|-44444444-33333333-44443333---|   
D|-44444444-44444444-44444444---| 
A|-22222222-44444444-xxxx4444---|   
E|-------------------4444-------|   
Then
E|--------------------------------| 
B|--------------------------------| 
G|-999\888/999/111111/13131313/16-| 
D|-xxx\xxx/xxx/x-x-x-/x-x-x-x-/x--|     
A|-777\666/777/9-9-9-/11111111/14-| 
E|--------------------------------|  
Then
e|--------------------------------------------|   
B|----------00000000-----0000-0^0^0^33333333--|   
G|-44444444-33333333-44443333-1^1^1^22222222--|   
D|-44444444-44444444-44444444-2^2^2^00000000--| 
A|-22222222-44444444-xxxx4444-2^2^2^----------|   
E|-------------------4444---------------------| 

Legend: slide- \/  dead note- x   up strum- ^   palm mute- PM|..|   hammer- h 
                                  pull off- p

            
            
Suggest correction
Creating personal tab
Creating personal tab
You can edit any tab online and save it as your Personal.

You can edit, replace or remove any tab part or add personal notes – all changes will be seen only by you.

Personal tabs can be accessed anytime from any device, even offline.
Learn more »
Give kudos to tab author, rate the tab!
1 2 3 4 5
comments
print report bad tab
guest
You may want to rate the tab now too:
select rating
Wanna post a correction for this tab? Suggest correction