Oops, an error
Loading. Please wait.

You Are King tab

622 views 1 this week
no commentswrite comment
1 2 3 4 5
2 more votes to show rating
add to favorites
×
Save as Personal and add changes to this tab that will be seen only by you. Learn more ›
×
You can save this tab as Personal to edit and correct it or add notes. All changes will be seen only by you. Learn more »
launch autoscroll
font size
0
reset
how to read this tab
guitar tuner
edit
Autoscroll
slow
fast
+/-
esc
set tempo
stop
Author
Difficulty
You are King  transcribed by: Rodino Sim of SFC CC3 


Intro
Guitar 1 (lead guitar)
               
e|----------|-14-----|-12-----|
B|-----15---|---15---|---15---|
G|---14-----|-----12-|-----12-|
D|-12-------|--------|--------|
A|----------|--------|--------| 4x
E|----------|--------|--------|
      5x        2x      3x
Guitar 2

e|-------------------------------|
B|-------------------------------|
G|-------------------------------| *(14x) 14 times to hit the note
D|---(14x)-----------------------|
A|----5-----------(14x)----------| just listen to the song for the timing
E|-----------------3-------------|
PM|   .            .   |

Guitar 3

e|-----------------------|
B|---------------8-7--3--|
G|-7\9/11----7-9---------|
D|-x\x/x---7-------------|just listen to the song for the proper timing
A|-5\7/9-----------------| (pero papasok to sa 3rd na ulet sa Intro)
E|-----------------------|
PM|        . . .  |
Verse 

Guitar 2
(Same as  intro)

Guitar 3
(strum the chords)
e|-0---3-|
B|-3---3-|
G|-2---0-|4x
D|-----0-|
A|-----2-|
E|-----3-|
Pre-chorus

Guitar 1 (muted tong part na to)

e|----------------------------------------------------------------------------|
B|----------------------------------------------------------------------------|
G|----------------------------------------------------------------------------|
D|------4------4-----------------------------7-------7------------------------|
A|--2-2----2-2---2-2------5------5------5-5-----5-5----5-5------7-----7-------|
E|--------------------3-3----3-3---3-3----------------------5-5---5-5---5-5---|

e|-----------------------------------------------------------------------|
B|-----------------------------------------------------------------------|
G|-------------4-------------------------------------7-------------------|
D|------4------------------------5-----------7---------------------------|
A|--2-2----2-2---2-2------5-------------5-5-----5-5----5-5---------------|
E|--------------------3-3----3-3---3-3-----------------------------------|

e|--------------------------------------------|
B|--------------------------------------------|
G|--------------------------------------------|
D|------------------7-------------------------|
A|-----------7------------------7------7------|
E|------5-5-----5-5----5---5-5-----5-5---5----|

Guitar 2 

e|-------------------------------|
B|-------------------------------|
G|-------------------------------| *(8x) 8 times to hit the note
D|---(8x)------(8x)--------------|
A|----2---(8x)--5—-(8x)----------| just listen to the song 
E|----------3-------5------------|(Babad sa A sa pangalawa)
PM |  .     .   .    .  |
                 2x


Guitar 3
(strum the chords)
e|-0---3---0---0-|
B|-3---3---3---0-|
G|-2---0---2---2-|2x 
D|-x---0-------2-|
A|-2---2---------|
E|-----3---------|

Chorus

Guitar 1

e|-0----|
B|-3----|
G|-2----|Let it ring
D|------|
A|------|
E|------|

Guitar 2

e|--------------------------------------------|
B|--------------------------------------------|
G|--------------------------------------------| *(14x) 14 times 
D|---(14x)-------------------(8x)-----(14x)---| to hit the note
A|----5-----------(14x)--------2—-(8x)--5-----| 
E|-----------------3----------------3---------|
PM|   .            .           .    .   .   |

Guitar 3

e|-0----|
B|-3----|
G|-2----|Let it ring
D|------|
A|------|
E|------|

2nd Intro

Guitar 1 (lead guitar)
               
e|----------|-14-----|-12-----|
B|-----15---|---15---|---15---|
G|---14-----|-----12-|-----12-|
D|-12-------|--------|--------|
A|----------|--------|--------| 2x
E|----------|--------|--------|
      5x        2x      3x
Guitar 2
e|-------------------------------|
B|-------------------------------|
G|-------------------------------| *(14x) 14 times to hit the note
D|---(14x)-----------------------|
A|----5-----------(14x)----------| just listen to the song for the timing
E|-----------------3-------------|
PM|   .            .   |
Guitar 3

e|-----------------------|
B|---------------8-7--3--|
G|-7\9/11----7-9---------|
D|-x\x/x---7-------------|2x
A|-5\7/9-----------------| 
E|-----------------------|

2nd Verse (may Biglang Pause dito,pakiabangan na lang)

Guitar 1
e|---12----------5-----|
B|---15----------8-----|
G|---14----------7-----|
D|---12----------5-----| 2x    Let it ring
A|---12----------5-----|
E|---------------------|

e|---12-12-------5-5-----|
B|---15---15-----8---8---|
G|---14-----14---7-----7-|
D|---12----------5-------| 2x
A|---12----------5-------|
E|-----------------------|

Guitar 2
e|-------------------------------|
B|-------------------------------|
G|-------------------------------| *(14x) 14 times to hit the note
D|---(14x)-----------------------|
A|----5-----------(14x)----------| just listen to the song for the timing
E|-----------------3-------------|
PM|   .            .   |

Guitar 3
(strum the chords)
e|-0---3-|
B|-3---3-|
G|-2---0-|4x
D|-----0-|
A|-----2-|
E|-----3-|

Guitar 1 Repeat Pre-chorus
Guitar 2 Repeat Pre-chorus
Guitar 3 Repeat Pre-chorus



2nd Chorus

Guitar 1
(strum the chords)
e|----10-------------------10----|
B|----10-----8------12--8--10----|
G|----x------7------11--7--x-----|
D|----7------x------x---x--7-----|just listen to the song for the timing
A|-----------5------9---5--------|
E|-------------------------------|

Guitar 2 
(strum the chords)
e|--0---3----0----3--0--|
B|--3---3----3----3--3--|
G|--2---0----2----0--2--|
D|--0---0----x----0--0--|
A|--0---2----2----2--0--|
E|--0---3----0----3--0--|

Guitar 3
(strum the chords)
e|--0---3----0----3--0--|
B|--3---3----3----3--3--|
G|--2---0----2----0--2--|
D|--0---0----x----0--0--|
A|--0---2----2----2--0--|
E|--0---3----0----3--0--|

Bridge

Guitar 1
e|-------------------------------------------------|
B|-------------------------------------------------|
G|-99999999/1111111111111111\1212/1111\99/77\99----|
D|-xxxxxxxx/x-x-x-x-x-x-x-x-\x-x-/x-x-\xx/xx\xx----|
A|-77777777/9-9-9-9-9-9-9-9-\1010/9-9-\77/55\77----|
E|-------------------------------------------------|

e|--------------------------------------------------------------|
B|----------------------------12121212/101010101010101010101010-|
G|-99999999/1111111111111111--x-x-x-x-/x-x-x-x-x-x-x-x-x-x-x-x--|
D|-xxxxxxxx/x-x-x-x-x-x-x-x---9-9-9-9-/7-7-7-7-7-7-7-7-7-7-7-7--|
A|-77777777/9-9-9-9-9-9-9-9-------------------------------------|
E|--------------------------------------------------------------|

e|-------------------------------------------------|
B|-------------------------------------------------|
G|-99999999/1111111111111111\1212/1111\99/77\99----|
D|-xxxxxxxx/x-x-x-x-x-x-x-x-\x-x-/x-x-\xx/xx\xx----|
A|-77777777/9-9-9-9-9-9-9-9-\1010/9-9-\77/55\77----|
E|-------------------------------------------------|

e-----------------|
B|----------------|
G|-99-1111--12----|
D|-xx-x-x---x-----|
A|-77-9-9---10----|
E|----------------|


Guitar 2   (May Break/Bagsakan sa huling line  ng Bridge)
(strum the chords)
e|-----0----0-----3----|
B|-----0----3-----3----|
G|-----2----2-----0----|
D|-----2----x-----0----|
A|-----0----2-----2----|
E|-----0----0-----3----|

Guitar 3   (May Break/Bagsakan sa huling line  ng Bridge)
(strum the chords)
e|-----0----0-----3----|
B|-----0----3-----3----|
G|-----2----2-----0----|
D|-----2----x-----0----|
A|-----0----2-----2----|
E|-----0----0-----3----|

Last 2 Chorus

Guitar 1
(2nd to the last chorus)
e|----------|-14-----|
B|-----15---|---15---|
G|---14-----|-----12-|
D|-12-------|--------|
A|----------|--------| 2x
E|----------|--------|
      5x        2x      
(last chorus)
e|----12-------------------10----|
B|----15-----8------12--8--10----|
G|----14-----7------11--7--x-----|
D|----12-----x------x---x--7-----|
A|----12-----5------9---5--------|
E|-------------------------------|

e|----10-------------------10----|
B|----10-----8------12--8--10----|
G|----x------7------11--7--x-----|
D|----7------x------x---x--7-----|just listen to the song for the timing
A|-----------5------9---5--------|
E|-------------------------------|

Guitar 2
2nd to the last Chorus
(after bridge ganito na ulet ung chorus then sunod strum chords ulet)
e|--------------------------------------------|
B|--------------------------------------------|
G|--------------------------------------------| *(14x) 14 times 
D|---(14x)-------------------(8x)-----(14x)---| to hit the note
A|----5-----------(14x)--------2—-(8x)--5-----| 
E|-----------------3----------------3---------|
PM|   .            .           .    .   .   |

Last Chorus
 (strum the chords)
e|--0---3----0----3--0--|
B|--3---3----3----3--3--|
G|--2---0----2----0--2--|
D|--0---0----x----0--0--|
A|--0---2----2----2--0--|
E|--0---3----0----3--0--|

Guitar 3
2nd to the last Chorus
(Bagsakan na lang yung Chords)
e|--0---3----0----3--0--|
B|--3---3----3----3--3--|
G|--2---0----2----0--2--|
D|--0---0----x----0--0--|
A|--0---2----2----2--0--|
E|--0---3----0----3--0--|

Last Chorus
(strum the chords)
e|--0---3----0----3--0--|
B|--3---3----3----3--3--|
G|--2---0----2----0--2--|
D|--0---0----x----0--0--|
A|--0---2----2----2--0--|
E|--0---3----0----3--0--|

Outro

Guitar 1

e|---------10----|
B|--12--8--10----|
G|--11--7--x-----| 5x 
D|--x---x--7-----| 
A|--9---5--------|
E|---------------|

(ung unang 3 ulit lang yung may kanta sa outro then ung pinaka last ung 
parang pinapatalon ung chords)

Guitar 2
(strum the chords)
e|--0----3--0--|
B|--3----3--3--|
G|--2----0--2--|
D|--x----0--0--|
A|--2----2--0--|5x
E|--0----3--0--|

(ung unang 3 ulit lang yung may kanta sa outro then ung pinaka last ung 
parang pinapatalon ung chords)

Guitar 3
(strum the chords)
e|--0----3--0--|
B|--3----3--3--|
G|--2----0--2--|
D|--x----0--0--|
A|--2----2--0--|5x
E|--0----3--0--|

(ung unang 3 ulit lang yung may kanta sa outro then ung pinaka last ung 
parang pinapatalon ung chords)


Tab Legend:  Slide- \/  Palm Mute- PM |...|     Dead note- x   


God bless and keep rocking \m/ 

            
            
Suggest correction
Creating personal tab
Creating personal tab
You can edit any tab online and save it as your Personal.

You can edit, replace or remove any tab part or add personal notes – all changes will be seen only by you.

Personal tabs can be accessed anytime from any device, even offline.
Learn more »
Give kudos to tab author, rate the tab!
1 2 3 4 5
comments
print report bad tab
guest
You may want to rate the tab now too:
select rating
Wanna post a correction for this tab? Suggest correction