Oops, an error
Loading. Please wait.

Cult Of Personality Tab

version 1
version 1

Whole song

Interactive

115,493 views 48 this week
9 commentsread comments
1 2 3 4 5
x 19
add to favorites
launch autoscroll
font size
0
reset
how to read this tab
guitar tuner
Autoscroll
slow
fast
+/-
esc
set tempo
stop
Help us to improve Ultimate-Guitar.com Take our survey!
×
[Intro]

(4/4)

e|---------------------------------|
B|---------------------------------|
G|---------------------------------|  x4
D|----3-----2-----3-----2-2--------|
A|------5-----------5--------------|
E|--3-----3-----3-----3------------|
   1   +   2   +   3   +   4  +


(3/4)

e|---------------------------|
B|---------------------------|
G|----------------2----------|
D|----3-----5-3-0---3-0------| 
A|------5---------------3-2--|
E|--3-----3------------------|
   1   +   2   +   3   +


(4/4)

e|---------------------------------|
B|---------------------------------|
G|---------------------------------|  x2
D|----3-----2-----3-----2-2--------|
A|------5-----------5--------------|
E|--3-----3-----3-----3------------|
   1   +   2   +   3   +   4  +


[Verse]

(4/4)

e|---------------------------------|
B|---------------------------------|
G|---------------------------------|  x2
D|----3-----2-----3-----2-2--------|
A|------5-----------5--------------|
E|--3-----3-----3-----3------------|
   1   +   2   +   3   +   4  +


B5 F5

(4/4)

e|---------------------------------|
B|---------------------------------|
G|---------------------------------|  x5
D|----3-----2-----3-----2-2--------|
A|------5-----------5--------------|
E|--3-----3-----3-----3------------|
   1   +   2   +   3   +   4  +


B5 C5 

(4/4)

e|---------------------------------|
B|---------------------------------|
G|---------------------------------|  x3
D|----3-----2-----3-----2-2--------|
A|------5-----------5--------------|
E|--3-----3-----3-----3------------|
   1   +   2   +   3   +   4  +


[Pre-Chorus]

B5 F5

(4/4)

e|---------------------------------|
B|---------------------------------|
G|---------------------------------|
D|----3-----2-----3-----2-2--------|
A|------5-----------5--------------|
E|--3-----3-----3-----3------------|
   1   +   2   +   3   +   4  +

B5 C5

(3/4)

e|---------------------------|
B|---------------------------|
G|----------------2----------|
D|----3-----5-3-0---3-0------|
A|------5---------------3-2--|
E|--3-----3------------------|
   1   +   2   +   3   +


(3/4)

e|---------------------------|
B|---------------------------|
G|----------2-----4-3-0------|
D|----3-------3-0-------3-0--|
A|------5--------------------|
E|--3-----3------------------|
   1   +   2   +   3   +


(3/4)

e|---------------------------|
B|---------------------------|
G|----------------2----------|
D|----3-----5-3-0---3-0------|
A|------5---------------3-2--|
E|--3-----3------------------|
   1   +   2   +   3   +


(3/4)

e|---------------------------|
B|---------------------------|
G|----------2-----4-3-0------|
D|----3-------3-0-------3-0--|
A|------5--------------------|
E|--3-----3------------------|
   1   +   2   +   3   +


[Chorus]

B5 F5, C5 G5, D5 Dmaj7, F5 C5
B5 F5, C5 G5, D5 Dmaj7, F5 C5

and so on...

He plays G blues all the time, sounds very jazzy however.
At the end of the (fast) Outro he repeats 4 notes of Riff 3.

lyrics as in the CD booklet:


[Verse]

Look into my eyes, what do you see?
Cult of Personality
I know your anger, I know your dreams
I've been everything you want to be
I'm the Cult of Personality
Like Mussolini and Kennedy


[Pre-Chorus]

I'm the (3x) Cult of Personality


[Chorus]

Neon lights, a Nobel price
The mirror speaks, his reflection lies
You don't have to follow me
Only you can set me free


[Verse]

I sell the things you need to be
I'm the smiling face on your tv
I'm the Cult of Personality
I exploit you still you love me

I tell you one and one makes three
I'm the Cult of Personality
Like Joseph Stalin and Ghandi


[Pre-Chorus]

I'm the (3x) Cult of Personality


[Chorus]

Neon lights, a Nobel price
The mirror speaks, his reflection lies
You don't have to follow me
Only you can set me free

You gave me fortune
You gave me fame
You gave me power in your God's name
I'm every person you need to be
I'm the Cult of Personality
Suggest correction
comments
print report bad tab
9 comments total. Showing first comments.
0 reply
maiden8594 131 Mar 17, 2006 11:47 AM

dude...this tab sucks..... ih have the book so i might tab it

0 reply
Stratslasher515 120 Jul 11, 2007 07:55 PM

maidin8594 is right this tab sucks

0 reply
Stratslasher515 120 Jul 13, 2007 09:22 AM

non accurate, wrong, and very sloppy

guest
You may want to rate the tab now too:
select rating
Wanna post a correction for this tab? Suggest correction