Oops, an error
Loading. Please wait.

Solace Of You tab

version 2
version 2

Whole song

2,285 views 1 this week
1 commentread comment
1 2 3 4 5
1 last vote to show rating
add to favorites
×
Save as Personal and add changes to this tab that will be seen only by you. Learn more ›
×
You can save this tab as Personal to edit and correct it or add notes. All changes will be seen only by you. Learn more »
launch autoscroll
font size
0
reset
how to read this tab
guitar tuner
edit
Autoscroll
slow
fast
+/-
esc
set tempo
stop
Author
SOLACE OF YOU   -       Living Colour


Intro:
e|--------------------|
B|h8p7-h8p7-h8p7-h8p7-|     [8x]
G|h7p7-h7p7-h7p7-h7p7-|
D|h9p7-h9p7-h9p7-h9p7-|
A|--------------------|
E|--------------------|

e|---------/-----------------/-----------/---9--------------/--|
B|-8p7-8p7-/s10-10------s8-8-/7--8p7-8p7-/s10--10------s8-8-/7-|
G|-7p7-7p7-/s-9----9----s7-7-/7--7p7-7p7-/s11-----9----s7-7-/7-|  [2x]
D|-9p7-9p7-/s11------11-s9-9-/7--9p7-9p7-/s11-------11-s9-9-/7-|
A|---------/-----------------/-----------/------------------/--|
E|---------/-----------------/-----------/------------------/--|


Verse:
e|---------/-----------------/-----------/---9--------------/--|
B|-8p7-8p7-/s10-10------s8-8-/7--8p7-8p7-/s10--10------s8-8-/7-|
G|-7p7-7p7-/s-9----9----s7-7-/7--7p7-7p7-/s11-----9----s7-7-/7-|
D|-9p7-9p7-/s11------11-s9-9-/7--9p7-9p7-/s11-------11-s9-9-/7-|
A|---------/-----------------/-----------/------------------/--|
E|---------/-----------------/-----------/------------------/--|
When it hurts to be out there                     Where no one cares
                 I've got the solace of you

Frustrated by the peoples lying       But I keep on trying
              I've got the solace of you

When I can't think straight  And there's no escape  I've got the solace of you

e|---------/----9----------------/
B|-8p7-8p7-/s10---10-------9-8-7-/
G|-7p7-7p7-/s-9------9-----8-7-7-/
D|-9p7-9p7-/s11--------11-10-9-7-/
A|---------/---------------------/
E|---------/---------------------/


Chorus:
e|-----------/-----------/-----------/------------------/
B|8-8-7--7-7-/5-5-5--5-5-/6-6-5--5-5-/3-3--------3-3-3-3/
G|7-7-7--7-7-/6-6-6--6-6-/5-5-5--5-5-/4-4----4---5-5-5p4/
D|9-9-7--7-7-/7-7-7--7-7-/7-7-5--5-5-/5-5--5---5-5-5-5-5/
A|-----------/-----------/-----------/------------------/
E|-----------/-----------/-----------/------------------/

e|-----------/-----------/-----------/-------------/
B|-8-8-7-7--7/-5-5-5-5--5/-6-6-5-5--5/-3-3-3--3-3-3/
G|-7-7-7-7--7/-6-6-6-6--6/-5-5-5-5--5/-4-4-4--5-5-4/
D|9-9-7-7--7-/7-7-7-7--7-/7-7-5-5--5-/5-5-5-5-5-5-5/
A|-----------/-----------/-----------/-------------/
E|-----------/-----------/-----------/-------------/
  Gotta go inside, Back where it started
                         Back to the beginning cause that's where my heart is
  Gotta go inside, Back where it started

e|---------/-----------------/-----------9-/s14!-------/--|
B|-8p7-8p7-/s10-10---------8-/7--8p7-8p7-10/s15!-----8-/7-|
G|-7p7-7p7-/s-9----9-------7-/7--7p7-7p7---/---------7-/7-|
D|-9p7-9p7-/s11------11-s9-9-/7--9p7-9p7---/---------9-/7-|
A|---------/-----------------/-------------/-----------/--|
E|---------/-----------------/-------------/-----------/--|


Verse:
e|---------/-----------------/-----------/-----------------/--|
B|-8p7-8p7-/s10-10---------8-/7--8p7-8p7-/s10-10---------8-/7-|
G|-7p7-7p7-/s-9----9-------7-/7--7p7-7p7-/s11----9-------7-/7-|
D|-9p7-9p7-/s11------11-s9-9-/7--9p7-9p7-/s11------11-s9-9-/7-|
A|---------/-----------------/-----------/-----------------/--|
E|---------/-----------------/-----------/-----------------/--|
They can hurt me, jail my body                 I'd still be free

e|-----------/---9--------------/--|
B|7--8p7-8p7-/s10--10---------8-/7-|
G|7--7p7-7p7-/s11-----9-------7-/7-|
D|7--9p7-9p7-/s11-------11-s9-9-/7-|
A|-----------/------------------/--|
E|-----------/------------------/--|
                   I've got the solace of you

e|---------/-----------------/-----------/-----------------/--|
B|-8p7-8p7-/s10-10---------8-/7--8p7-8p7-/s10-10---------8-/7-|
G|-7p7-7p7-/s-9----9-------7-/7--7p7-7p7-/s11----9-------7-/7-|
D|-9p7-9p7-/s11------11-s9-9-/7--9p7-9p7-/s11------11-s9-9-/7-|
A|---------/-----------------/-----------/-----------------/--|
E|---------/-----------------/-----------/-----------------/--|
                                They can take my land

e|-----------/---9--------------/--|
B|7--8p7-8p7-/s10--10---------8-/7-|
G|7--7p7-7p7-/s11-----9-------7-/7-|
D|7--9p7-9p7-/s11-------11-s9-9-/7-|
A|-----------/------------------/--|
E|-----------/------------------/--|
   Tell me I'm not who I am

e|---------/-----------------/-----------/---9--------------/--|
B|-8p7-8p7-/s10-10---------8-/7--8p7-8p7-/s10--10---------8-/7-|
G|-7p7-7p7-/s-9----9-------7-/7--7p7-7p7-/s11-----9-------7-/7-|
D|-9p7-9p7-/s11------11-s9-9-/7--9p7-9p7-/s11-------11-s9-9-/7-|
A|---------/-----------------/-----------/------------------/--|
E|---------/-----------------/-----------/------------------/--|
                 I've got the solace of you
e|---------/-----------------/-----------/---9--------------/--|
B|-8p7-8p7-/s10-10---------8-/7--8p7-8p7-/s10--10---------8-/7-|
G|-7p7-7p7-/s-9----9-------7-/7--7p7-7p7-/s11-----9-------7-/7-|
D|-9p7-9p7-/s11------11-s9-9-/7--9p7-9p7-/s11-------11-s9-9-/7-|
A|---------/-----------------/-----------/------------------/--|
E|---------/-----------------/-----------/------------------/--|
  A wiseman said to know thyself,
                                      Cause in the end there is noone else

e|---------/-----------------/-----------/---9----------------/
B|-8p7-8p7-/s10-10---------8-/7--8p7-8p7-/s10--10-------9-8-7-/
G|-7p7-7p7-/s-9----9-------7-/7--7p7-7p7-/s11-----9-----8-7-7-/
D|-9p7-9p7-/s11------11-s9-9-/7--9p7-9p7-/s11-------11-10-9-7-/
A|---------/-----------------/-----------/--------------------/
E|---------/-----------------/-----------/--------------------/
                  Just the solace of you


Chorus:
e|-----------/-----------/-----------/------------------/
B|8-8-7--7-7-/5-5-5--5-5-/6-6-5--5-5-/3-3--------3-3-3-3/
G|7-7-7--7-7-/6-6-6--6-6-/5-5-5--5-5-/4-4----4---5-5-5p4/
D|9-9-7--7-7-/7-7-7--7-7-/7-7-5--5-5-/5-5--5---5-5-5-5-5/
A|-----------/-----------/-----------/------------------/
E|-----------/-----------/-----------/------------------/

e|-----------/-----------/-----------/-------------/
B|-8-8-7-7--7/-5-5-5-5--5/-6-6-5-5--5/-3-3-3--3-3-3/
G|-7-7-7-7--7/-6-6-6-6--6/-5-5-5-5--5/-4-4-4--5-5-4/
D|9-9-7-7--7-/7-7-7-7--7-/7-7-5-5--5-/5-5-5-5-5-5-5/
A|-----------/-----------/-----------/-------------/
E|-----------/-----------/-----------/-------------/
  Gotta go inside, Back where it started
                          Back to the beginning cause that's where my heart is
  Gotta go inside, Back where it started
                          Back to the beginning cause that's where my heart is
  Gotta go inside,         Back to the beginning
  Gotta go inside,         Back to the beginning/


Outro:
e|---------/-----------------/-----------/---9--------------/--|
B|-8p7-8p7-/s10-10---------8-/7--8p7-8p7-/s10--10---------8-/7-|
G|-7p7-7p7-/s-9----9-------7-/7--7p7-7p7-/s11-----9-------7-/7-|
D|-9p7-9p7-/s11------11-s9-9-/7--9p7-9p7-/s11-------11-10-9-/7-|
A|---------/-----------------/-----------/------------------/--|
E|---------/-----------------/-----------/------------------/--|

e|--------------------        --------s14-------//
B|h8p7-h8p7-h8p7-h8p7-  [4x]  ---7---s15-------7//
G|h7p7-h7p7-h7p7-h7p7-        --7---s14-------7-//
D|h9p7-h9p7-h9p7-h9p7-        -7-------------7--//
A|--------------------        --------------9---//
E|--------------------        ------------------//
Suggest correction
Creating personal tab
Creating personal tab
You can edit any tab online and save it as your Personal.

You can edit, replace or remove any tab part or add personal notes – all changes will be seen only by you.

Personal tabs can be accessed anytime from any device, even offline.
Learn more »
Give kudos to tab author, rate the tab!
1 2 3 4 5
comments
print report bad tab
1 comment total.
0 reply
channellsguitar 36 Sep 03, 2014 07:13 AM

This tab is perfect, man!!! I don't know how Vernon Reid does it. Underrated guitarist, underrated band!

guest
You may want to rate the tab now too:
select rating
Wanna post a correction for this tab? Suggest correction