Oops, an error
Loading. Please wait.

Type tab

version 2
version 2

Whole song

Interactive

1,208 views 3 this week
1 commentread comment
1 2 3 4 5
1 last vote to show rating
add to favorites
×
Save as Personal and add changes to this tab that will be seen only by you. Learn more ›
×
You can save this tab as Personal to edit and correct it or add notes. All changes will be seen only by you. Learn more »
launch autoscroll
font size
0
reset
how to read this tab
guitar tuner
edit
Autoscroll
slow
fast
+/-
esc
set tempo
stop
Author
TYPE    -       Living Colour


Intro:
e|--------------/--------------/--------------/------2--------/
B|--------------/--------------/--------------/--------5-2----/
G|--------------/--------------/--------------/------------4-2/
D|--4-----------/--4-----------/--4-----------/--4-4----------/
A|--4------2-3-4/--4------2-3-4/--4------2-3-4/--4-4----------/
E|2-2--2-5------/3-2--2-5------/3-2--2-5------/3-2-2----------/



e|--------------/--------------/--------------/---------------/
B|--------------/--------------/--------------/---------------/
G|--------------/--------------/--------------/---------------/
D|--4-----------/--4-----------/--4-----------/--4-4-4-4------/
A|--4------2-3-4/--4------2-3-4/--4------2-3-4/--4-4-4-4------/
E|2-2--2-5------/3-2--2-5------/3-2--2-5------/3-2-2-2-2------/
  Stereotype                    Monotype 

e|--------------/--------------/--------------/---------------/
B|--------------/--------------/--------------/---------------/
G|--------------/--------------/--------------/---------------/
D|--4-----------/--4-----------/--4-----------/--4-4-4-4------/
A|--4------2-3-4/--4------2-3-4/--4------2-3-4/--4-4-4-4------/
E|2-2--2-5------/3-2--2-5------/3-2--2-5------/3-2-2-2-2------/
  Blood type                    Are you my type? 


F#m              Gm - F#m               Gm          F#m                                 
     Minimalism           Abstract ex -     pres -      sionism 
F#m                  Gm - F#m          Gm - F#m                                          
     Postmodernism            Is it? 


e|------2----------2---/------2--4------------2/5----------/
B|---4----------2------/---3---------------3---/-----2--0--/
G|4--------4--3-------3/2---------------2------/-----2--1--/
D|---------------------/-----------------------/-----2--2--/
A|---------------------/-----------------------/-----0--2--/
E|---------------------/-----------------------/-----------/
  We are the children of concrete and steel 

e|------2----------2---/------2--4------------2/5----------/
B|---4----------2------/---3---------------3---/-----2--0--/
G|4--------4--3-------3/2---------------2------/-----2--1--/
D|---------------------/-----------------------/-----2--2--/
A|---------------------/-----------------------/-----0--2--/
E|---------------------/-----------------------/-----------/
  This is the place where the truth is concealed 

e|------2----------2---/------2--4------------2/5----------/
B|---4----------2------/---3---------------3---/-----2--0--/
G|4--------4--3-------3/2---------------2------/-----2--1--/
D|---------------------/-----------------------/-----2--2--/
A|---------------------/-----------------------/-----0--2--/
E|---------------------/-----------------------/-----------/
  This is the time when the lie is revealed 

e|------2----------2---/------2--4------------2/5----------/
B|---4----------2------/---3---------------3---/-----2--0--/
G|4--------4--3-------3/2---------------2------/-----2--1--/
D|---------------------/-----------------------/-----2--2--/
A|---------------------/-----------------------/-----0--2--/
E|---------------------/-----------------------/-----------/
  Everything is possible, but nothing is real 


e|--------------/--------------/--------------/------2--------/
B|--------------/--------------/--------------/--------5-2----/
G|--------------/--------------/--------------/------------4-2/
D|--4-----------/--4-----------/--4-----------/--4-4----------/
A|--4------2-3-4/--4------2-3-4/--4------2-3-4/--4-4----------/
E|2-2--2-5------/3-2--2-5------/3-2--2-5------/3-2-2----------/


e|--------------/--------------/--------------/---------------/
B|--------------/--------------/--------------/---------------/
G|--------------/--------------/--------------/---------------/
D|--4-----------/--4-----------/--4-----------/--4-4-4-4------/
A|--4------2-3-4/--4------2-3-4/--4------2-3-4/--4-4-4-4------/
E|2-2--2-5------/3-2--2-5------/3-2--2-5------/3-2-2-2-2------/
  Corporate religion            Televanga hypnotism 

e|--------------/--------------/--------------/---------------/
B|--------------/--------------/--------------/---------------/
G|--------------/--------------/--------------/---------------/
D|--4-----------/--4-----------/--4-----------/--4-4-4-4------/
A|--4------2-3-4/--4------2-3-4/--4------2-3-4/--4-4-4-4------/
E|2-2--2-5------/3-2--2-5------/3-2--2-5------/3-2-2-2-2------/
  Suffer till you die        For the sweet-bye-and-bye 


F#m                           Gm - F#m                   Gm - F#m                       
     Science and technology,           the new mythology 
F#m                    Gm - F#m        Gm - F#m                                         
     Look deep inside           Empty 


e|------2----------2---/------2--4------------2/5----------/
B|---4----------2------/---3---------------3---/-----2--0--/
G|4--------4--3-------3/2---------------2------/-----2--1--/
D|---------------------/-----------------------/-----2--2--/
A|---------------------/-----------------------/-----0--2--/
E|---------------------/-----------------------/-----------/
  We are the children of concrete and steel 

e|------2----------2---/------2--4------------2/5----------/
B|---4----------2------/---3---------------3---/-----2--0--/
G|4--------4--3-------3/2---------------2------/-----2--1--/
D|---------------------/-----------------------/-----2--2--/
A|---------------------/-----------------------/-----0--2--/
E|---------------------/-----------------------/-----------/
  This is the place where the truth is concealed 

e|------2----------2---/------2--4------------2/5----------/
B|---4----------2------/---3---------------3---/-----2--0--/
G|4--------4--3-------3/2---------------2------/-----2--1--/
D|---------------------/-----------------------/-----2--2--/
A|---------------------/-----------------------/-----0--2--/
E|---------------------/-----------------------/-----------/
  This is the time when the lie is revealed 

e|------2----------2---/------2--4------------2/5----------/
B|---4----------2------/---3---------------3---/-----2--0--/
G|4--------4--3-------3/2---------------2------/-----2--1--/
D|---------------------/-----------------------/-----2--2--/
A|---------------------/-----------------------/-----0--2--/
E|---------------------/-----------------------/-----------/
  Everything is possible, but nothing is real 


e|---------------/2---3-3---2----/------0---------/------0-------/
B|2---------2----/3---3-3---3----/--------4-------/--------3-----/
G|2---------2----/2---2-2---2----/----4-----4-----/----3-----3---/
D|2---------2----/0-0-----0---0-0/--4---------4---/--3---------3-/
A|0-0-0-0-0-0-0-0/---------------/2-------------2s/1------------1/
E|---------------/---------------/----------------/--------------/
                        Ooohh     ooohhh

e|---------------/2---3-3---2----/------0---------/------0-------/
B|2---------2----/3---3-3---3----/--------4-------/--------3-----/
G|2---------2----/2---2-2---2----/----4-----4-----/----3-----3---/
D|2---------2----/0-0-----0---0-0/--4---------4---/--3---------3-/
A|0-0-0-0-0-0-0-0/---------------/2-------------2s/1------------1/
E|---------------/---------------/----------------/--------------/
                        Aaah      ha haaah

e|---------------/2---3-3---2----/------0---------/------0-------/
B|2---------2----/3---3-3---3----/--------4-------/--------3-----/
G|2---------2----/2---2-2---2----/----4-----4-----/----3-----3---/
D|2---------2----/0-0-----0---0-0/--4---------4---/--3---------3-/
A|0-0-0-0-0-0-0-0/---------------/2-------------2s/1------------1/
E|---------------/---------------/----------------/--------------/
  Everything that goes around  Comes arou -       ound 



Break:
e|--------------------/------------/------------/
B|--------------------/------------/------------/
G|----2---------------/------------/------------/   3x 
D|--4---4---4------4--/--4------4--/--4------4--/
A|4-------3---3-2-----/3---3-2-----/3---3-2-----/
E|--------------------/------------/------------/

e|--------------------/------------/------
B|--------------------/------------/------
G|----2---------------/------------/------
D|--4---4---4------4--/--4------4--/--4---
A|4-------3---3-2-----/3---3-2-----/3---3-
E|--------------------/------------/------

F#m -      Gm - F#m -      Gm - F#m -     Gm - F#m  
                                                    Well..


e|--------------/--------------/--------------/---------------/
B|--------------/--------------/--------------/---------------/
G|--------------/--------------/--------------/---------------/
D|--4-----------/--4-----------/--4-----------/--4-4-4-4------/
A|--4------2-3-4/--4------2-3-4/--4------2-3-4/--4-4-4-4------/
E|2-2--2-5------/3-2--2-5------/3-2--2-5------/3-2-2-2-2------/
  Hypothetical                  Theoretical 

e|--------------/--------------/--------------/---------------/
B|--------------/--------------/--------------/---------------/
G|--------------/--------------/--------------/---------------/
D|--4-----------/--4-----------/--4-----------/--4-4-4-4------/
A|--4------2-3-4/--4------2-3-4/--4------2-3-4/--4-4-4-4------/
E|2-2--2-5------/3-2--2-5------/3-2--2-5------/3-2-2-2-2------/
  Circumstantial evidence   Irrelevance     Well.. 


F#m                     Gm - F#m                     Gm - F#m                           
     Don't think twice           Just roll the dice 
F#m                  Gm - F#m             Gm - F#m                                       
     Pay the price            Snake eyes 



e|------2----------2---/------2--4------------2/5----------/
B|---4----------2------/---3---------------3---/-----2--0--/
G|4--------4--3-------3/2---------------2------/-----2--1--/
D|---------------------/-----------------------/-----2--2--/
A|---------------------/-----------------------/-----0--2--/
E|---------------------/-----------------------/-----------/
  We are the children of concrete and steel 

e|------2----------2---/------2--4------------2/5----------/
B|---4----------2------/---3---------------3---/-----2--0--/
G|4--------4--3-------3/2---------------2------/-----2--1--/
D|---------------------/-----------------------/-----2--2--/
A|---------------------/-----------------------/-----0--2--/
E|---------------------/-----------------------/-----------/
  This is the place where the truth is concealed 

e|------2----------2---/------2--4------------2/5----------/
B|---4----------2------/---3---------------3---/-----2--0--/
G|4--------4--3-------3/2---------------2------/-----2--1--/
D|---------------------/-----------------------/-----2--2--/
A|---------------------/-----------------------/-----0--2--/
E|---------------------/-----------------------/-----------/
  This is the time when the lie is revealed 

e|------2----------2---/------2--4------------2/5----------/
B|---4----------2------/---3---------------3---/-----2--0--/
G|4--------4--3-------3/2---------------2------/-----2--1--/
D|---------------------/-----------------------/-----2--2--/
A|---------------------/-----------------------/-----0--2--/
E|---------------------/-----------------------/-----------/
  Everything is possible, but nothing is real 


B              F#/C#               D/A                                         
   We are the         children of       concrete and steel 
B               F#/C#                  D/A                                    
   This is the        place where your      fate has been sealed 
B               F#/C#                 D/A                                      
   This is the        time when your       life is revealed 
B                 F#/C#                 D/A                                    
   Everything is         possible, but       nothing is, nothing is 
                                     A/           E/                    
nothing is, nothing is, nothing is,      nothing      is


e|---------------/2---3-3---2----/------0---------/------0-------/
B|2---------2----/3---3-3---3----/--------4-------/--------3-----/
G|2---------2----/2---2-2---2----/----4-----4-----/----3-----3---/
D|2---------2----/0-0-----0---0-0/--4---------4---/--3---------3-/
A|0-0-0-0-0-0-0-0/---------------/2-------------2s/1------------1/
E|---------------/---------------/----------------/--------------/
                         Nothing is  real

e|---------------/2---3-3---2----/------0---------/------0-------/
B|2---------2----/3---3-3---3----/--------4-------/--------3-----/
G|2---------2----/2---2-2---2----/----4-----4-----/----3-----3---/
D|2---------2----/0-0-----0---0-0/--4---------4---/--3---------3-/
A|0-0-0-0-0-0-0-0/---------------/2-------------2s/1------------1/
E|---------------/---------------/----------------/--------------/
                         Nothing is  real

e|---------------/2---3-3---2----/------0---------/------0-------/
B|2---------2----/3---3-3---3----/--------4-------/--------3-----/
G|2---------2----/2---2-2---2----/----4-----4-----/----3-----3---/
D|2---------2----/0-0-----0---0-0/--4---------4---/--3---------3-/
A|0-0-0-0-0-0-0-0/---------------/2-------------2s/1------------1/
E|---------------/---------------/----------------/--------------/
   Everything that goes around  Comes arou -       ound 

e|---------------/2---3-3---2----/------0---------/------0-------/
B|2---------2----/3---3-3---3----/--------4-------/--------3-----/
G|2---------2----/2---2-2---2----/----4-----4-----/----3-----3---/
D|2---------2----/0-0-----0---0-0/--4---------4---/--3---------3-/
A|0-0-0-0-0-0-0-0/---------------/2-------------2s/1------------1/
E|---------------/---------------/----------------/--------------/
   Everything that goes around  Comes arou -       ound 


(start Corey’s singing extravaganza)

e|---------------/2---3-3---2----/------0---------/------0-------/
B|2---------2----/3---3-3---3----/--------4-------/--------3-----/
G|2---------2----/2---2-2---2----/----4-----4-----/----3-----3---/
D|2---------2----/0-0-----0---0-0/--4---------4---/--3---------3-/
A|0-0-0-0-0-0-0-0/---------------/2-------------2s/1------------1/
E|---------------/---------------/----------------/--------------/
   Everything that goes around  Comes arou -       ound 
   Everything that goes around  Comes arou -       ound 
   Everything that goes around  Comes arou -       ound 
   Everything that goes around  Comes arou -       ound 
   Everything that goes around  Comes arou -       ound 
   Everything that goes around  Comes arou -       ound 
   Everything that goes around  Comes arou -       ound 
   Everything that goes around  Comes arou -       ound 
   Everything that goes around  Comes arou -       ound 

(start fading)

   Everything that goes around  Comes arou -       ound 
   Everything that goes around  Comes arou -       ound 
   Everything that goes around  Comes arou -       ound 
   Everything that goes around  Comes arou -       ound 



F#m   x9111110x
Gm    x10121211x
B     x24442
F#/C# x44322
D/A   x00232
A     x02220
E     022100
Suggest correction
Creating personal tab
Creating personal tab
You can edit any tab online and save it as your Personal.

You can edit, replace or remove any tab part or add personal notes – all changes will be seen only by you.

Personal tabs can be accessed anytime from any device, even offline.
Learn more »
Give kudos to tab author, rate the tab!
1 2 3 4 5
comments
print report bad tab
1 comment total.
0 reply
cmlukey 10 May 25, 2017 03:08 PM

Pretty sweet tab. Great song - thanks for doing this. An overlooked gem. A couple of suggested minor corrections. I think the Gm-F#m should be A#m - Am. Also at the end of the chorus I think a B chord sounds better than E, but tha is just my ear.

guest
You may want to rate the tab now too:
select rating
Wanna post a correction for this tab? Suggest correction