Oops, an error
Loading. Please wait.

Rules Of Engagement tab

169 views 3 this week
no commentswrite comment
1 2 3 4 5
2 more votes to show rating
add to favorites
×
Save as Personal and add changes to this tab that will be seen only by you. Learn more ›
×
You can save this tab as Personal to edit and correct it or add notes. All changes will be seen only by you. Learn more »
launch autoscroll
font size
0
reset
how to read this tab
guitar tuner
edit
Autoscroll
slow
fast
+/-
esc
set tempo
stop
Rules of Engagement 

tab by Glorifying God Guitar


[Intro]

    PM-----|  PM--|                          PM--|  
e|----------------------------------------------------------------------------|
B|----------------------------------------------------------------------------|
G|----------------------------------------------------------------------------|
D|----------------------------------------------------------------------------|
A|-5---------5-----5-----5-5b6-6-6-6-6br5-5-5------10p9h10p9h10p9-10p9\3------|
E|---0-0-0-0---0-0---0-0----------------------0-0-----------------------------|

   All E string notes are muted                           last 10 is picked


[Verse]

verses are just chugging on E string with this fill(the first time they play it is most easy to hear it)

e|-----------------|
B|-----------------|
G|-----------------|
D|-----------------|
A|-----------------|
E|-8-7-8-7-8-7-8-7-|
  PM--------------|
 

[Pre-Chorus]

PM-------------------------------------------------------------------------------------------------------|
e|--------------------------------------------------------------------------------------------------------|
B|--------------------------------------------------------------------------------------------------------|
G|--------------------------------------------------------------------------------------------------------|
D|-0-0--0-0--0-0--0-0--0-0--0-7-7--7-7--6-6--6-6--6-6--0-0--0-0--0-0--0-0--0-0--0-6-6--6-6--5-5--5-5--5-3-|
A|-0-0--0-0--0-0--0-0--0-0--0-7-7--7-7--6-6--6-6--6-6--0-0--0-0--0-0--0-0--0-0--0-6-6--6-6--5-5--5-5--5-3-|
E|-0-0--0-0--0-0--0-0--0-0--0-7-7--7-7--6-6--6-6--6-6--0-0--0-0--0-0--0-0--0-0--0-6-6--6-6--5-5--5-5--5-3-|
     all PM


[Chorus]

e|-----------------------------------------|
B|-----------------------------------------|
G|-----------------------------------------|
D|-----------------------------------------|
A|-----------------------------0-3-0-------|
E|-0--0-5-b6br5--3--0--0-3-5-6-------6-5-3-|
                       PM-----------------|  last time you play it,the last note is a pinch harmonic


[Solo Rhythm]

chug on E string in between all of these chords
e|--------------------------------------|
B|--------------------------------------|
G|-7-7------8-8-----10-10----------7-7--|
D|-7-7------8-8-----10-10---6-6----7-7--|
A|-5-5------6-6------8-8----6-6----5-5--|
E|--------------------------6-6---------|

ENGAGE!


************************************
| h   Hammer-on
| p   Pull-off
|\    Slide down
| b   Bend
| br  Bend release
************************************


Expectations of actions that conform
Foreign beliefs put in position to be killed
You have to go, you have to fight
There's no one else that's capable
No one else would even dare

Put your life on the line without a word
Silent and stealth just like you were trained to kill

Your hands are tied, you've been compromised
As the bullets rain down on your hide
Twenty yards and counting, the enemy rears his head
Black eyes glaring hate in his heart

Blood and sweat mixed with earth
Bloody mess, stench of death
Blood and sweat mixed with earth
Searing flesh is what you're worth


Your hands are tied, you've been compromised
As the bullets rain down on your hide
Your hands are tied, you've been compromised
As the bullets rain down on your hide

Engage

Sent to defend, trained to kill
By the ones who called you an animal

Your hands are tied, you've been compromised
As the bullets rain down on your hide
Your hands are tied, you're gonna die
By decisions made in someone else's mind
Suggest correction
Creating personal tab
Creating personal tab
You can edit any tab online and save it as your Personal.

You can edit, replace or remove any tab part or add personal notes – all changes will be seen only by you.

Personal tabs can be accessed anytime from any device, even offline.
Learn more »
Give kudos to tab author, rate the tab!
1 2 3 4 5
comments
print report bad tab
guest
You may want to rate the tab now too:
select rating
Wanna post a correction for this tab? Suggest correction